  0
SECTION
  2
HEADER
  9
$ACADVER
  1
AC1009
  9
$INSBASE
 10
0.0
 20
0.0
 30
0.0
  9
$EXTMIN
 10
-170.0164782349211
 20
-265.80211091866681
 30
-0.0015258207003583
  9
$EXTMAX
 10
370.0164807494923
 20
537.08808227102497
 30
0.0000000349246037
  9
$LIMMIN
 10
0.0
 20
0.0
  9
$LIMMAX
 10
0.0
 20
0.0
  9
$ORTHOMODE
 70
     0
  9
$REGENMODE
 70
     1
  9
$FILLMODE
 70
     1
  9
$QTEXTMODE
 70
     0
  9
$MIRRTEXT
 70
     1
  9
$DRAGMODE
 70
     2
  9
$LTSCALE
 40
15.24
  9
$OSMODE
 70
   231
  9
$ATTMODE
 70
     1
  9
$TEXTSIZE
 40
0.0
  9
$TRACEWID
 40
1.0
  9
$TEXTSTYLE
  7
STANDARD
  9
$CLAYER
  8
DATA
  9
$CELTYPE
  6
BYLAYER
  9
$CECOLOR
 62
   256
  9
$DIMSCALE
 40
1.0
  9
$DIMASZ
 40
0.18
  9
$DIMEXO
 40
0.0625
  9
$DIMDLI
 40
0.38
  9
$DIMRND
 40
0.0
  9
$DIMDLE
 40
0.0
  9
$DIMEXE
 40
0.18
  9
$DIMTP
 40
0.0
  9
$DIMTM
 40
0.0
  9
$DIMTXT
 40
0.18
  9
$DIMCEN
 40
0.09
  9
$DIMTSZ
 40
0.0
  9
$DIMTOL
 70
     0
  9
$DIMLIM
 70
     0
  9
$DIMTIH
 70
     1
  9
$DIMTOH
 70
     1
  9
$DIMSE1
 70
     0
  9
$DIMSE2
 70
     0
  9
$DIMTAD
 70
     0
  9
$DIMZIN
 70
     0
  9
$DIMBLK
  1

  9
$DIMASO
 70
     1
  9
$DIMSHO
 70
     1
  9
$DIMPOST
  1

  9
$DIMAPOST
  1

  9
$DIMALT
 70
     0
  9
$DIMALTD
 70
     2
  9
$DIMALTF
 40
25.399999999999999
  9
$DIMLFAC
 40
1.0
  9
$DIMTOFL
 70
     0
  9
$DIMTVP
 40
0.0
  9
$DIMTIX
 70
     0
  9
$DIMSOXD
 70
     0
  9
$DIMSAH
 70
     0
  9
$DIMBLK1
  1

  9
$DIMBLK2
  1

  9
$DIMSTYLE
  2
STANDARD
  9
$DIMCLRD
 70
     0
  9
$DIMCLRE
 70
     0
  9
$DIMCLRT
 70
     0
  9
$DIMTFAC
 40
1.0
  9
$DIMGAP
 40
0.09
  9
$LUNITS
 70
     2
  9
$LUPREC
 70
     4
  9
$SKETCHINC
 40
0.1
  9
$FILLETRAD
 40
0.0
  9
$AUNITS
 70
     0
  9
$AUPREC
 70
     0
  9
$MENU
  1
acad
  9
$ELEVATION
 40
0.0
  9
$PELEVATION
 40
0.0
  9
$THICKNESS
 40
0.0
  9
$LIMCHECK
 70
     0
  9
$BLIPMODE
 70
     0
  9
$CHAMFERA
 40
0.0
  9
$CHAMFERB
 40
0.0
  9
$SKPOLY
 70
     0
  9
$TDCREATE
 40
2455223.867199074
  9
$TDUPDATE
 40
2455223.867670706
  9
$TDINDWG
 40
0.0002949421
  9
$TDUSRTIMER
 40
0.0002947685
  9
$USRTIMER
 70
     1
  9
$ANGBASE
 50
0.0
  9
$ANGDIR
 70
     0
  9
$PDMODE
 70
     1
  9
$PDSIZE
 40
-2.0
  9
$PLINEWID
 40
0.0
  9
$COORDS
 70
     0
  9
$SPLFRAME
 70
     0
  9
$SPLINETYPE
 70
     6
  9
$SPLINESEGS
 70
     8
  9
$ATTDIA
 70
     0
  9
$ATTREQ
 70
     1
  9
$HANDLING
 70
     1
  9
$HANDSEED
  5
53E
  9
$SURFTAB1
 70
     6
  9
$SURFTAB2
 70
     6
  9
$SURFTYPE
 70
     6
  9
$SURFU
 70
     6
  9
$SURFV
 70
     6
  9
$UCSNAME
  2

  9
$UCSORG
 10
0.0
 20
0.0
 30
0.0
  9
$UCSXDIR
 10
1.0
 20
0.0
 30
0.0
  9
$UCSYDIR
 10
0.0
 20
1.0
 30
0.0
  9
$PUCSNAME
  2

  9
$PUCSORG
 10
0.0
 20
0.0
 30
0.0
  9
$PUCSXDIR
 10
1.0
 20
0.0
 30
0.0
  9
$PUCSYDIR
 10
0.0
 20
1.0
 30
0.0
  9
$USERI1
 70
     0
  9
$USERI2
 70
     0
  9
$USERI3
 70
     0
  9
$USERI4
 70
     0
  9
$USERI5
 70
     0
  9
$USERR1
 40
0.0
  9
$USERR2
 40
0.0
  9
$USERR3
 40
0.0
  9
$USERR4
 40
0.0
  9
$USERR5
 40
0.0
  9
$WORLDVIEW
 70
     1
  9
$SHADEDGE
 70
     3
  9
$SHADEDIF
 70
    70
  9
$TILEMODE
 70
     1
  9
$MAXACTVP
 70
    64
  9
$PLIMCHECK
 70
     0
  9
$PEXTMIN
 10
1.0000000000000000E+020
 20
1.0000000000000000E+020
 30
1.0000000000000000E+020
  9
$PEXTMAX
 10
-1.0000000000000000E+020
 20
-1.0000000000000000E+020
 30
-1.0000000000000000E+020
  9
$PLIMMIN
 10
0.0
 20
0.0
  9
$PLIMMAX
 10
12.0
 20
9.0
  9
$UNITMODE
 70
     0
  9
$VISRETAIN
 70
     0
  9
$PLINEGEN
 70
     1
  9
$PSLTSCALE
 70
     0
  0
ENDSEC
  0
SECTION
  2
TABLES
  0
TABLE
  2
VPORT
 70
     1
  0
VPORT
  2
*ACTIVE
 70
     0
 10
0.0
 20
0.0
 11
1.0
 21
1.0
 12
100.0000012572857
 22
135.64298567617911
 13
0.0
 23
0.0
 14
1.0
 24
1.0
 15
0.0
 25
0.0
 16
0.0
 26
0.0
 36
1.0
 17
0.0
 27
0.0
 37
0.0
 40
808.80830272180265
 41
1.964329643296433
 42
50.0
 43
0.0
 44
0.0
 50
0.0
 51
0.0
 71
     0
 72
  2000
 73
     1
 74
     1
 75
     0
 76
     0
 77
     0
 78
     0
  0
ENDTAB
  0
TABLE
  2
LTYPE
 70
    11
  0
LTYPE
  2
CONTINUOUS
 70
     0
  3
Solid line
 72
    65
 73
     0
 40
0.0
  0
LTYPE
  2
STYLE_01
 70
     0
  3

 72
    65
 73
     2
 40
0.4166412353515625
 49
0.208282470703125
 49
-0.2083587646484375
  0
LTYPE
  2
STYLE_05
 70
     0
  3

 72
    65
 73
     2
 40
0.208282470703125
 49
0.069427490234375
 49
-0.13885498046875
  0
ENDTAB
  0
TABLE
  2
LAYER
 70
     6
  0
LAYER
  2
0
 70
     0
 62
     7
  6
CONTINUOUS
  0
LAYER
  2
DATA
 70
     0
 62
     7
  6
CONTINUOUS
  0
LAYER
  2
HIBINO-BASE
 70
     0
 62
     7
  6
CONTINUOUS
  0
LAYER
  2
PATTERN_FILL
 70
     0
 62
     7
  6
CONTINUOUS
  0
LAYER
  2
SPEC
 70
     0
 62
     7
  6
CONTINUOUS
  0
LAYER
  2
DIMNSIONS
 70
     0
 62
     7
  6
CONTINUOUS
  0
ENDTAB
  0
TABLE
  2
STYLE
 70
     3
  0
STYLE
  2
STANDARD
 70
     0
 40
0.0
 41
1.0
 50
0.0
 71
     0
 42
0.0
  3
txt
  4
BIGFONT.SHX
  0
ENDTAB
  0
TABLE
  2
VIEW
 70
     0
  0
ENDTAB
  0
TABLE
  2
UCS
 70
     0
  0
ENDTAB
  0
TABLE
  2
APPID
 70
     3
  0
APPID
  2
ACAD
 70
     0
  0
APPID
  2
ACADANNOTATIVE
 70
     0
  0
APPID
  2
ACAD_MLEADERVER
 70
     0
  0
ENDTAB
  0
TABLE
  2
DIMSTYLE
 70
     2
  0
DIMSTYLE
  2
STANDARD
 70
     0
  3

  4

  5

  6

  7

 40
1.0
 41
0.18
 42
0.0625
 43
0.38
 44
0.18
 45
0.0
 46
0.0
 47
0.0
 48
0.0
140
0.18
141
0.09
142
0.0
143
25.399999999999999
144
1.0
145
0.0
146
1.0
147
0.09
 71
     0
 72
     0
 73
     1
 74
     1
 75
     0
 76
     0
 77
     0
 78
     0
170
     0
171
     2
172
     0
173
     0
174
     0
175
     0
176
     0
177
     0
178
     0
  0
ENDTAB
  0
ENDSEC
  0
SECTION
  2
BLOCKS
  0
BLOCK
  8
0
  2
$MODEL_SPACE
 70
     0
 10
0.0
 20
0.0
 30
0.0
  3
$MODEL_SPACE
  1

  0
ENDBLK
  5
4CD
  8
0
  0
BLOCK
 67
     1
  8
0
  2
$PAPER_SPACE
 70
     0
 10
0.0
 20
0.0
 30
0.0
  3
$PAPER_SPACE
  1

  0
ENDBLK
  5
4C9
 67
     1
  8
0
  0
ENDSEC
  0
SECTION
  2
ENTITIES
  0
LINE
  5
2D
  8
HIBINO-BASE
  6
CONTINUOUS
 62
     7
 10
-169.99999999999989
 20
537.06362999999999
 30
0.0
 11
370.0
 21
537.06362999999999
 31
0.0
  0
LINE
  5
2E
  8
HIBINO-BASE
  6
CONTINUOUS
 62
     7
 10
370.0
 20
-242.93637000000001
 30
0.0
 11
-169.99999999999989
 21
-242.93637000000001
 31
0.0
  0
LINE
  5
2F
  8
HIBINO-BASE
  6
CONTINUOUS
 62
     7
 10
-169.99999999999989
 20
-242.93637000000001
 30
0.0
 11
-169.99999999999989
 21
537.06362999999999
 31
0.0
  0
TEXT
  5
30
  8
HIBINO-BASE
 62
     7
 10
-148.44799999999989
 20
-262.1624033999999
 30
0.0
 40
10.800132539062499
  1
Hibino Corporation
 41
0.7
 11
-148.44799999999989
 21
-251.3622708609374
 31
0.0
 73
     3
  0
LINE
  5
31
  8
HIBINO-BASE
  6
CONTINUOUS
 62
     7
 10
370.0
 20
537.06362999999999
 30
0.0
 11
370.0
 21
-242.93637000000001
 31
0.0
  0
LINE
  5
32
  8
HIBINO-BASE
  6
CONTINUOUS
 62
     7
 10
100.0
 20
-175.4363699999999
 30
0.0
 11
370.0
 21
-175.4363699999999
 31
0.0
  0
LINE
  5
33
  8
HIBINO-BASE
  6
CONTINUOUS
 62
     7
 10
100.0
 20
-242.93637000000001
 30
0.0
 11
100.0
 21
-175.4363699999999
 31
0.0
  0
TEXT
  5
34
  8
HIBINO-BASE
 62
     7
 10
102.7
 20
-182.96244999999999
 30
0.0
 40
4.8865234374999993
  1
NOTE
 41
0.7
 11
102.7
 21
-178.0759265625
 31
0.0
 73
     3
  0
LINE
  5
35
  8
HIBINO-BASE
  6
CONTINUOUS
 62
     7
 10
205.0
 20
-242.93637000000001
 30
0.0
 11
205.0
 21
-175.4363699999999
 31
0.0
  0
TEXT
  5
36
  8
HIBINO-BASE
 62
     7
 10
207.69999999999999
 20
-182.96244999999999
 30
0.0
 40
4.8865234374999993
  1
TITLE
 41
0.7
 11
207.69999999999999
 21
-178.0759265625
 31
0.0
 73
     3
  0
TEXT
  5
37
  8
HIBINO-BASE
 62
     7
 10
250.2051699999999
 20
-262.1624033999999
 30
0.0
 40
10.800132539062499
  1
ヒビノ株式会社
 41
0.7
 11
250.2051699999999
 21
-251.3622708609374
 31
0.0
 73
     3
  0
LINE
  5
38
  8
HIBINO-BASE
  6
CONTINUOUS
 62
     7
 10
100.0
 20
-212.9363699999999
 30
0.0
 11
370.0
 21
-212.9363699999999
 31
0.0
  0
TEXT
  5
39
  8
HIBINO-BASE
 62
     7
 10
245.19999999999999
 20
-220.29348999999999
 30
0.0
 40
4.8865234374999993
  1
DRAWN
 41
0.7
 11
245.19999999999999
 21
-215.4069665625
 31
0.0
 73
     3
  0
TEXT
  5
3A
  8
HIBINO-BASE
 62
     7
 10
170.19999999999999
 20
-220.29348999999999
 30
0.0
 40
4.8865234374999993
  1
DATE
 41
0.7
 11
170.19999999999999
 21
-215.4069665625
 31
0.0
 73
     3
  0
TEXT
  5
3B
  8
HIBINO-BASE
 62
     7
 10
140.19999999999999
 20
-220.29348999999999
 30
0.0
 40
4.8865234374999993
  1
SCALE
 41
0.7
 11
140.19999999999999
 21
-215.4069665625
 31
0.0
 73
     3
  0
TEXT
  5
3C
  8
HIBINO-BASE
 62
     7
 10
207.69999999999999
 20
-220.29348999999999
 30
0.0
 40
4.8865234374999993
  1
DESIGN
 41
0.7
 11
207.69999999999999
 21
-215.4069665625
 31
0.0
 73
     3
  0
TEXT
  5
3D
  8
HIBINO-BASE
 62
     7
 10
320.19999999999999
 20
-220.29348999999999
 30
0.0
 40
4.8865234374999993
  1
DRAWING NO.
 41
0.7
 11
320.19999999999999
 21
-215.4069665625
 31
0.0
 73
     3
  0
TEXT
  5
3E
  8
HIBINO-BASE
 62
     7
 10
282.69999999999999
 20
-220.29348999999999
 30
0.0
 40
4.8865234374999993
  1
CHECK
 41
0.7
 11
282.69999999999999
 21
-215.4069665625
 31
0.0
 73
     3
  0
LINE
  5
3F
  8
HIBINO-BASE
  6
CONTINUOUS
 62
     7
 10
143.12499999999989
 20
-239.18637000000001
 30
0.0
 11
154.375
 21
-227.93637000000001
 31
0.0
  0
TEXT
  5
40
  8
HIBINO-BASE
 62
     7
 10
141.24999999999989
 20
-231.26320000000001
 30
0.0
 40
4.8865234374999993
  1
1
 41
0.7
 11
141.24999999999989
 21
-226.37667656249999
 31
0.0
 73
     3
  0
LINE
  5
41
  8
HIBINO-BASE
  6
CONTINUOUS
 62
     7
 10
137.5
 20
-242.93637000000001
 30
0.0
 11
137.5
 21
-212.9363699999999
 31
0.0
  0
LINE
  5
42
  8
HIBINO-BASE
  6
CONTINUOUS
 62
     7
 10
167.5
 20
-242.93637000000001
 30
0.0
 11
167.5
 21
-212.9363699999999
 31
0.0
  0
LINE
  5
43
  8
HIBINO-BASE
  6
CONTINUOUS
 62
     7
 10
242.5
 20
-212.9363699999999
 30
0.0
 11
242.5
 21
-242.93637000000001
 31
0.0
  0
LINE
  5
44
  8
HIBINO-BASE
  6
CONTINUOUS
 62
     7
 10
317.5
 20
-212.9363699999999
 30
0.0
 11
317.5
 21
-242.93637000000001
 31
0.0
  0
LINE
  5
45
  8
HIBINO-BASE
  6
CONTINUOUS
 62
     7
 10
279.99999999999989
 20
-242.93637000000001
 30
0.0
 11
279.99999999999989
 21
-212.9363699999999
 31
0.0
  0
TEXT
  5
46
  8
HIBINO-BASE
 62
     7
 10
170.06961999999999
 20
-234.34542999999999
 30
0.0
 40
4.8865234374999993
  1
'10.01.
 41
0.7
 11
170.06961999999999
 21
-229.4589065625
 31
0.0
 73
     3
  0
TEXT
  5
47
  8
HIBINO-BASE
 62
     7
 10
152.5
 20
-236.88820000000001
 30
0.0
 40
4.8865234374999993
  1
3
 41
0.7
 11
152.5
 21
-232.00167656249999
 31
0.0
 73
     3
  0
TEXT
  5
48
  8
HIBINO-BASE
 62
     7
 10
247.01743003310389
 20
-234.34542999999999
 30
0.0
 40
4.8865234374999993
  1
N.Sasaki
 41
0.7
 11
247.01743003310389
 21
-229.4589065625
 31
0.0
 73
     3
  0
TEXT
  5
49
  8
HIBINO-BASE
 62
     7
 10
111.65000000000001
 20
-237.00837000000001
 30
0.0
 40
9.7730468749999986
  1
A4
 41
0.7
 11
111.65000000000001
 21
-227.23532312500001
 31
0.0
 73
     3
  0
TEXT
  5
4A
  8
HIBINO-BASE
 62
     7
 10
102.875
 20
-220.794735
 30
0.0
 40
4.8865234374999993
  1
PAPER SIZE
 41
0.7
 11
102.875
 21
-215.90821156249999
 31
0.0
 73
     3
  0
LINE
  5
4B
  8
PATTERN_FILL
  6
STYLE_05
 62
     7
 10
-62.285825906948993
 20
159.69601939671011
 30
0.0
 11
-70.743059494022191
 21
156.61783810677909
 31
0.0
  0
LINE
  5
4C
  8
PATTERN_FILL
  6
STYLE_05
 62
     7
 10
-66.014190578542681
 20
171.10913890347121
 30
0.0
 11
-75.223178262244602
 21
167.7573414988797
 31
0.0
  0
LINE
  5
4D
  8
PATTERN_FILL
  6
STYLE_05
 62
     7
 10
-70.743059494022191
 20
156.61783810677909
 30
0.0
 11
-75.223178262244602
 21
167.7573414988797
 31
0.0
  0
LINE
  5
4E
  8
PATTERN_FILL
  6
STYLE_05
 62
     7
 10
-62.285825906948993
 20
159.69601939671011
 30
0.0
 11
-66.014190578542681
 21
171.10913890347121
 31
0.0
  0
LINE
  5
4F
  8
PATTERN_FILL
  6
STYLE_05
 62
     7
 10
-72.170553158404729
 20
188.02360607761759
 30
0.0
 11
-81.379540842106636
 21
184.67180867302611
 31
0.0
  0
LINE
  5
50
  8
PATTERN_FILL
  6
STYLE_05
 62
     7
 10
-75.223178262244602
 20
167.7573414988797
 30
0.0
 11
-85.715068655727819
 21
196.58357344236771
 31
0.0
  0
LINE
  5
51
  8
PATTERN_FILL
  6
STYLE_05
 62
     7
 10
-66.014190578542681
 20
171.10913890347121
 30
0.0
 11
-76.506080972025913
 21
199.9353708469593
 31
0.0
  0
CIRCLE
  5
52
  8
PATTERN_FILL
  6
STYLE_05
 62
     7
 10
-83.273429723443343
 20
204.2018671702541
 30
0.0
 40
8.0000000000000053
  0
CIRCLE
  5
53
  8
PATTERN_FILL
  6
STYLE_05
 62
     7
 10
-83.273429723443343
 20
204.2018671702541
 30
0.0
 40
3.9499999999999842
  0
CIRCLE
  5
54
  8
PATTERN_FILL
  6
STYLE_05
 62
     7
 10
-83.273429723443343
 20
204.2018671702541
 30
0.0
 40
5.8499999999999819
  0
LINE
  5
55
  8
PATTERN_FILL
  6
STYLE_05
 62
     7
 10
-86.992219482630105
 20
208.71773948100071
 30
0.0
 11
-87.759463657868338
 21
210.82572552767601
 31
0.0
  0
LINE
  5
56
  8
PATTERN_FILL
  6
STYLE_05
 62
     7
 10
-83.327418261565072
 20
210.05161803997089
 30
0.0
 11
-84.094662436803318
 21
212.15960408664611
 31
0.0
  0
LINE
  5
57
  8
PATTERN_FILL
  6
STYLE_05
 62
     7
 10
-81.221964461683584
 20
209.68036972841639
 30
0.0
 11
-79.780017082058365
 21
211.39881569841651
 31
0.0
  0
LINE
  5
58
  8
PATTERN_FILL
  6
STYLE_05
 62
     7
 10
-78.234391133519026
 20
207.17349805063949
 30
0.0
 11
-76.79244375389419
 21
208.8919440206393
 31
0.0
  0
LINE
  5
59
  8
PATTERN_FILL
  6
STYLE_05
 62
     7
 10
-88.366456851489616
 20
207.07998715958601
 30
0.0
 11
-90.575648406351775
 21
207.46952723626151
 31
0.0
  0
LINE
  5
5A
  8
PATTERN_FILL
  6
STYLE_05
 62
     7
 10
-89.043684744389793
 20
203.2392369228383
 30
0.0
 11
-91.252876299252122
 21
203.6287769995138
 31
0.0
  0
LINE
  5
5B
  8
PATTERN_FILL
  6
STYLE_05
 62
     7
 10
-88.312468313367134
 20
201.23023628986931
 30
0.0
 11
-89.754415692992325
 21
199.51179031986919
 31
0.0
  0
LINE
  5
5C
  8
PATTERN_FILL
  6
STYLE_05
 62
     7
 10
-85.324894985203684
 20
198.72336461209119
 30
0.0
 11
-86.766842364828662
 21
197.00491864209141
 31
0.0
  0
LINE
  5
5D
  8
PATTERN_FILL
  6
STYLE_05
 62
     7
 10
-82.452197010083395
 20
196.24413025386201
 30
0.0
 11
-83.219441185321656
 21
198.35211630053729
 31
0.0
  0
LINE
  5
5E
  8
PATTERN_FILL
  6
STYLE_05
 62
     7
 10
-78.787395789018376
 20
197.57800881283219
 30
0.0
 11
-79.554639964256623
 21
199.6859948595075
 31
0.0
  0
LINE
  5
5F
  8
PATTERN_FILL
  6
STYLE_05
 62
     7
 10
-75.97121104053555
 20
200.93420710424681
 30
0.0
 11
-78.180402595397894
 21
201.3237471809224
 31
0.0
  0
LINE
  5
60
  8
PATTERN_FILL
  6
STYLE_05
 62
     7
 10
-75.293983147633881
 20
204.77495734099429
 30
0.0
 11
-77.503174702496111
 21
205.16449741766971
 31
0.0
  0
LINE
  5
61
  8
PATTERN_FILL
  6
STYLE_05
 62
     7
 10
-44.233560433198612
 20
88.315484856366069
 30
0.0
 11
-40.450000000292917
 21
90.425461571562295
 31
0.0
  0
LINE
  5
62
  8
PATTERN_FILL
  6
STYLE_05
 62
     7
 10
-44.917600719849943
 20
90.194870097937866
 30
0.0
 11
-40.450000000292917
 21
92.686315301000192
 31
0.0
  0
LINE
  5
63
  8
PATTERN_FILL
  6
STYLE_05
 62
     7
 10
-45.60164100650131
 20
92.074255339509691
 30
0.0
 11
-40.450000000292917
 21
94.947169030438076
 31
0.0
  0
LINE
  5
64
  8
PATTERN_FILL
  6
STYLE_05
 62
     7
 10
-46.285681293152678
 20
93.953640581081544
 30
0.0
 11
-41.066413966675093
 21
96.864267416449565
 31
0.0
  0
LINE
  5
65
  8
PATTERN_FILL
  6
STYLE_05
 62
     7
 10
-46.969721579804023
 20
95.833025822653354
 30
0.0
 11
-41.75045425332641
 21
98.743652658021418
 31
0.0
  0
LINE
  5
66
  8
PATTERN_FILL
  6
STYLE_05
 62
     7
 10
-47.653761866455383
 20
97.712411064225165
 30
0.0
 11
-42.434494539977777
 21
100.6230378995932
 31
0.0
  0
LINE
  5
67
  8
PATTERN_FILL
  6
STYLE_05
 62
     7
 10
-48.33780215310675
 20
99.591796305796947
 30
0.0
 11
-43.11853482662913
 21
102.502423141165
 31
0.0
  0
LINE
  5
68
  8
PATTERN_FILL
  6
STYLE_05
 62
     7
 10
-49.021842439758089
 20
101.4711815473688
 30
0.0
 11
-43.80257511328049
 21
104.38180838273681
 31
0.0
  0
LINE
  5
69
  8
PATTERN_FILL
  6
STYLE_05
 62
     7
 10
-49.705882726409463
 20
103.3505667889406
 30
0.0
 11
-44.486615399931843
 21
106.2611936243087
 31
0.0
  0
LINE
  5
6A
  8
PATTERN_FILL
  6
STYLE_05
 62
     7
 10
-50.389923013060809
 20
105.22995203051239
 30
0.0
 11
-45.170655686583203
 21
108.1405788658805
 31
0.0
  0
LINE
  5
6B
  8
PATTERN_FILL
  6
STYLE_05
 62
     7
 10
-51.073963299712162
 20
107.1093372720842
 30
0.0
 11
-45.85469597323457
 21
110.0199641074523
 31
0.0
  0
LINE
  5
6C
  8
PATTERN_FILL
  6
STYLE_05
 62
     7
 10
-51.758003586363493
 20
108.988722513656
 30
0.0
 11
-46.538736259885901
 21
111.89934934902411
 31
0.0
  0
LINE
  5
6D
  8
PATTERN_FILL
  6
STYLE_05
 62
     7
 10
-52.442043873014839
 20
110.8681077552279
 30
0.0
 11
-47.222776546537283
 21
113.7787345905959
 31
0.0
  0
LINE
  5
6E
  8
PATTERN_FILL
  6
STYLE_05
 62
     7
 10
-53.126084159666178
 20
112.74749299679971
 30
0.0
 11
-47.906816833188628
 21
115.6581198321677
 31
0.0
  0
LINE
  5
6F
  8
PATTERN_FILL
  6
STYLE_05
 62
     7
 10
-53.810124446317523
 20
114.6268782383715
 30
0.0
 11
-48.590857119839967
 21
117.5375050737395
 31
0.0
  0
LINE
  5
70
  8
PATTERN_FILL
  6
STYLE_05
 62
     7
 10
-54.494164732968848
 20
116.5062634799433
 30
0.0
 11
-49.274897406491363
 21
119.41689031531131
 31
0.0
  0
LINE
  5
71
  8
PATTERN_FILL
  6
STYLE_05
 62
     7
 10
-55.178205019620187
 20
118.3856487215151
 30
0.0
 11
-49.958937693142687
 21
121.2962755568832
 31
0.0
  0
LINE
  5
72
  8
PATTERN_FILL
  6
STYLE_05
 62
     7
 10
-55.862245306271532
 20
120.26503396308701
 30
0.0
 11
-50.642977979794047
 21
123.175660798455
 31
0.0
  0
LINE
  5
73
  8
PATTERN_FILL
  6
STYLE_05
 62
     7
 10
-56.546285592922871
 20
122.1444192046588
 30
0.0
 11
-51.327018266445378
 21
125.0550460400268
 31
0.0
  0
LINE
  5
74
  8
PATTERN_FILL
  6
STYLE_05
 62
     7
 10
-57.23032587957421
 20
124.0238044462306
 30
0.0
 11
-52.011058553096717
 21
126.93443128159861
 31
0.0
  0
LINE
  5
75
  8
PATTERN_FILL
  6
STYLE_05
 62
     7
 10
-57.914366166225541
 20
125.9031896878024
 30
0.0
 11
-52.69509883974807
 21
128.81381652317049
 31
0.0
  0
LINE
  5
76
  8
PATTERN_FILL
  6
STYLE_05
 62
     7
 10
-58.598406452876901
 20
127.78257492937421
 30
0.0
 11
-53.379139126399402
 21
130.6932017647423
 31
0.0
  0
LINE
  5
77
  8
PATTERN_FILL
  6
STYLE_05
 62
     7
 10
-59.282446739528211
 20
129.661960170946
 30
0.0
 11
-54.063179413050747
 21
132.57258700631411
 31
0.0
  0
LINE
  5
78
  8
PATTERN_FILL
  6
STYLE_05
 62
     7
 10
-59.966487026179543
 20
131.54134541251781
 30
0.0
 11
-54.747219699702093
 21
134.45197224788589
 31
0.0
  0
LINE
  5
79
  8
PATTERN_FILL
  6
STYLE_05
 62
     7
 10
-60.650527312830881
 20
133.42073065408971
 30
0.0
 11
-55.431259986353432
 21
136.3313574894577
 31
0.0
  0
LINE
  5
7A
  8
PATTERN_FILL
  6
STYLE_05
 62
     7
 10
-43.549520146547231
 20
86.436099614794273
 30
0.0
 11
-40.450000000292917
 21
88.164607842124354
 31
0.0
  0
LINE
  5
7B
  8
PATTERN_FILL
  6
STYLE_05
 62
     7
 10
-42.865479859895899
 20
84.556714373222462
 30
0.0
 11
-40.450000000292917
 21
85.903754112686485
 31
0.0
  0
LINE
  5
7C
  8
PATTERN_FILL
  6
STYLE_05
 62
     7
 10
-41.497399286593179
 20
80.797943890078813
 30
0.0
 11
-40.450000000292917
 21
81.382046653810676
 31
0.0
  0
LINE
  5
7D
  8
PATTERN_FILL
  6
STYLE_05
 62
     7
 10
-62.285825906948993
 20
159.69601939671011
 30
0.0
 11
-70.743059494022191
 21
156.61783810677909
 31
0.0
  0
LINE
  5
7E
  8
PATTERN_FILL
  6
STYLE_05
 62
     7
 10
-66.014190578542681
 20
171.10913890347121
 30
0.0
 11
-75.223178262244602
 21
167.7573414988797
 31
0.0
  0
LINE
  5
7F
  8
PATTERN_FILL
  6
STYLE_05
 62
     7
 10
-70.743059494022191
 20
156.61783810677909
 30
0.0
 11
-75.223178262244602
 21
167.7573414988797
 31
0.0
  0
LINE
  5
80
  8
PATTERN_FILL
  6
STYLE_05
 62
     7
 10
-62.285825906948993
 20
159.69601939671011
 30
0.0
 11
-66.014190578542681
 21
171.10913890347121
 31
0.0
  0
LINE
  5
81
  8
PATTERN_FILL
  6
STYLE_05
 62
     7
 10
-72.170553158404729
 20
188.02360607761759
 30
0.0
 11
-81.379540842106636
 21
184.67180867302611
 31
0.0
  0
LINE
  5
82
  8
PATTERN_FILL
  6
STYLE_05
 62
     7
 10
-75.223178262244602
 20
167.7573414988797
 30
0.0
 11
-85.715068655727819
 21
196.58357344236771
 31
0.0
  0
LINE
  5
83
  8
PATTERN_FILL
  6
STYLE_05
 62
     7
 10
-66.014190578542681
 20
171.10913890347121
 30
0.0
 11
-76.506080972025913
 21
199.9353708469593
 31
0.0
  0
CIRCLE
  5
84
  8
PATTERN_FILL
  6
STYLE_05
 62
     7
 10
-83.273429723443343
 20
204.2018671702541
 30
0.0
 40
8.0000000000000053
  0
CIRCLE
  5
85
  8
PATTERN_FILL
  6
STYLE_05
 62
     7
 10
-83.273429723443343
 20
204.2018671702541
 30
0.0
 40
3.9499999999999842
  0
CIRCLE
  5
86
  8
PATTERN_FILL
  6
STYLE_05
 62
     7
 10
-83.273429723443343
 20
204.2018671702541
 30
0.0
 40
5.8499999999999819
  0
LINE
  5
87
  8
PATTERN_FILL
  6
STYLE_05
 62
     7
 10
-86.992219482630105
 20
208.71773948100071
 30
0.0
 11
-87.759463657868338
 21
210.82572552767601
 31
0.0
  0
LINE
  5
88
  8
PATTERN_FILL
  6
STYLE_05
 62
     7
 10
-83.327418261565072
 20
210.05161803997089
 30
0.0
 11
-84.094662436803318
 21
212.15960408664611
 31
0.0
  0
LINE
  5
89
  8
PATTERN_FILL
  6
STYLE_05
 62
     7
 10
-81.221964461683584
 20
209.68036972841639
 30
0.0
 11
-79.780017082058365
 21
211.39881569841651
 31
0.0
  0
LINE
  5
8A
  8
PATTERN_FILL
  6
STYLE_05
 62
     7
 10
-78.234391133519026
 20
207.17349805063949
 30
0.0
 11
-76.79244375389419
 21
208.8919440206393
 31
0.0
  0
LINE
  5
8B
  8
PATTERN_FILL
  6
STYLE_05
 62
     7
 10
-88.366456851489616
 20
207.07998715958601
 30
0.0
 11
-90.575648406351775
 21
207.46952723626151
 31
0.0
  0
LINE
  5
8C
  8
PATTERN_FILL
  6
STYLE_05
 62
     7
 10
-89.043684744389793
 20
203.2392369228383
 30
0.0
 11
-91.252876299252122
 21
203.6287769995138
 31
0.0
  0
LINE
  5
8D
  8
PATTERN_FILL
  6
STYLE_05
 62
     7
 10
-88.312468313367134
 20
201.23023628986931
 30
0.0
 11
-89.754415692992325
 21
199.51179031986919
 31
0.0
  0
LINE
  5
8E
  8
PATTERN_FILL
  6
STYLE_05
 62
     7
 10
-85.324894985203684
 20
198.72336461209119
 30
0.0
 11
-86.766842364828662
 21
197.00491864209141
 31
0.0
  0
LINE
  5
8F
  8
PATTERN_FILL
  6
STYLE_05
 62
     7
 10
-82.452197010083395
 20
196.24413025386201
 30
0.0
 11
-83.219441185321656
 21
198.35211630053729
 31
0.0
  0
LINE
  5
90
  8
PATTERN_FILL
  6
STYLE_05
 62
     7
 10
-78.787395789018376
 20
197.57800881283219
 30
0.0
 11
-79.554639964256623
 21
199.6859948595075
 31
0.0
  0
LINE
  5
91
  8
PATTERN_FILL
  6
STYLE_05
 62
     7
 10
-75.97121104053555
 20
200.93420710424681
 30
0.0
 11
-78.180402595397894
 21
201.3237471809224
 31
0.0
  0
LINE
  5
92
  8
PATTERN_FILL
  6
STYLE_05
 62
     7
 10
-75.293983147633881
 20
204.77495734099429
 30
0.0
 11
-77.503174702496111
 21
205.16449741766971
 31
0.0
  0
LINE
  5
93
  8
PATTERN_FILL
  6
STYLE_05
 62
     7
 10
-45.60164100650131
 20
92.074255339509691
 30
0.0
 11
-40.450000000292917
 21
94.947169030438076
 31
0.0
  0
LINE
  5
94
  8
PATTERN_FILL
  6
STYLE_05
 62
     7
 10
-46.285681293152678
 20
93.953640581081544
 30
0.0
 11
-41.066413966675093
 21
96.864267416449565
 31
0.0
  0
LINE
  5
95
  8
PATTERN_FILL
  6
STYLE_05
 62
     7
 10
-46.969721579804023
 20
95.833025822653354
 30
0.0
 11
-41.75045425332641
 21
98.743652658021418
 31
0.0
  0
LINE
  5
96
  8
PATTERN_FILL
  6
STYLE_05
 62
     7
 10
-47.653761866455383
 20
97.712411064225165
 30
0.0
 11
-42.434494539977777
 21
100.6230378995932
 31
0.0
  0
LINE
  5
97
  8
PATTERN_FILL
  6
STYLE_05
 62
     7
 10
-48.33780215310675
 20
99.591796305796947
 30
0.0
 11
-43.11853482662913
 21
102.502423141165
 31
0.0
  0
LINE
  5
98
  8
PATTERN_FILL
  6
STYLE_05
 62
     7
 10
-49.021842439758089
 20
101.4711815473688
 30
0.0
 11
-43.80257511328049
 21
104.38180838273681
 31
0.0
  0
LINE
  5
99
  8
PATTERN_FILL
  6
STYLE_05
 62
     7
 10
-49.705882726409463
 20
103.3505667889406
 30
0.0
 11
-44.486615399931843
 21
106.2611936243087
 31
0.0
  0
LINE
  5
9A
  8
PATTERN_FILL
  6
STYLE_05
 62
     7
 10
-50.389923013060809
 20
105.22995203051239
 30
0.0
 11
-45.170655686583203
 21
108.1405788658805
 31
0.0
  0
LINE
  5
9B
  8
PATTERN_FILL
  6
STYLE_05
 62
     7
 10
-51.073963299712162
 20
107.1093372720842
 30
0.0
 11
-45.85469597323457
 21
110.0199641074523
 31
0.0
  0
LINE
  5
9C
  8
PATTERN_FILL
  6
STYLE_05
 62
     7
 10
-51.758003586363493
 20
108.988722513656
 30
0.0
 11
-46.538736259885901
 21
111.89934934902411
 31
0.0
  0
LINE
  5
9D
  8
PATTERN_FILL
  6
STYLE_05
 62
     7
 10
-52.442043873014839
 20
110.8681077552279
 30
0.0
 11
-47.222776546537283
 21
113.7787345905959
 31
0.0
  0
LINE
  5
9E
  8
PATTERN_FILL
  6
STYLE_05
 62
     7
 10
-53.126084159666178
 20
112.74749299679971
 30
0.0
 11
-47.906816833188628
 21
115.6581198321677
 31
0.0
  0
LINE
  5
9F
  8
PATTERN_FILL
  6
STYLE_05
 62
     7
 10
-53.810124446317523
 20
114.6268782383715
 30
0.0
 11
-48.590857119839967
 21
117.5375050737395
 31
0.0
  0
LINE
  5
A0
  8
PATTERN_FILL
  6
STYLE_05
 62
     7
 10
-54.494164732968848
 20
116.5062634799433
 30
0.0
 11
-49.274897406491363
 21
119.41689031531131
 31
0.0
  0
LINE
  5
A1
  8
PATTERN_FILL
  6
STYLE_05
 62
     7
 10
-55.178205019620187
 20
118.3856487215151
 30
0.0
 11
-49.958937693142687
 21
121.2962755568832
 31
0.0
  0
LINE
  5
A2
  8
PATTERN_FILL
  6
STYLE_05
 62
     7
 10
-55.862245306271532
 20
120.26503396308701
 30
0.0
 11
-50.642977979794047
 21
123.175660798455
 31
0.0
  0
LINE
  5
A3
  8
PATTERN_FILL
  6
STYLE_05
 62
     7
 10
-56.546285592922871
 20
122.1444192046588
 30
0.0
 11
-51.327018266445378
 21
125.0550460400268
 31
0.0
  0
LINE
  5
A4
  8
PATTERN_FILL
  6
STYLE_05
 62
     7
 10
-57.23032587957421
 20
124.0238044462306
 30
0.0
 11
-52.011058553096717
 21
126.93443128159861
 31
0.0
  0
LINE
  5
A5
  8
PATTERN_FILL
  6
STYLE_05
 62
     7
 10
-57.914366166225541
 20
125.9031896878024
 30
0.0
 11
-52.69509883974807
 21
128.81381652317049
 31
0.0
  0
LINE
  5
A6
  8
PATTERN_FILL
  6
STYLE_05
 62
     7
 10
-58.598406452876901
 20
127.78257492937421
 30
0.0
 11
-53.379139126399402
 21
130.6932017647423
 31
0.0
  0
LINE
  5
A7
  8
PATTERN_FILL
  6
STYLE_05
 62
     7
 10
-59.282446739528211
 20
129.661960170946
 30
0.0
 11
-54.063179413050747
 21
132.57258700631411
 31
0.0
  0
LINE
  5
A8
  8
PATTERN_FILL
  6
STYLE_05
 62
     7
 10
-59.966487026179543
 20
131.54134541251781
 30
0.0
 11
-54.747219699702093
 21
134.45197224788589
 31
0.0
  0
LINE
  5
A9
  8
PATTERN_FILL
  6
STYLE_05
 62
     7
 10
-60.650527312830881
 20
133.42073065408971
 30
0.0
 11
-55.431259986353432
 21
136.3313574894577
 31
0.0
  0
LINE
  5
AA
  8
PATTERN_FILL
  6
STYLE_05
 62
     7
 10
-42.181439573244532
 20
82.677329131650623
 30
0.0
 11
-40.450000000292917
 21
83.642900383248559
 31
0.0
  0
LINE
  5
AB
  8
PATTERN_FILL
  6
STYLE_05
 62
     7
 10
-79.726908416476931
 20
202.46270455013101
 30
0.0
 11
-81.674548967283769
 21
207.8138029846869
 31
0.0
  0
LINE
  5
AC
  8
PATTERN_FILL
  6
STYLE_05
 62
     7
 10
-79.348109198080763
 20
203.76100577121079
 30
0.0
 11
-80.549839992422577
 21
207.0627339929282
 31
0.0
  0
LINE
  5
AD
  8
PATTERN_FILL
  6
STYLE_05
 62
     7
 10
-85.07590416484696
 20
200.68710033757799
 30
0.0
 11
-79.633405622760733
 21
202.6680078069345
 31
0.0
  0
LINE
  5
AE
  8
PATTERN_FILL
  6
STYLE_05
 62
     7
 10
-85.889465390671646
 20
201.24233048560541
 30
0.0
 11
-79.367076626257202
 21
203.61628585216459
 31
0.0
  0
LINE
  5
AF
  8
PATTERN_FILL
  6
STYLE_05
 62
     7
 10
-86.470543951447695
 20
201.88217740369339
 30
0.0
 11
-79.333230294802121
 21
204.47994712733399
 31
0.0
  0
LINE
  5
B0
  8
PATTERN_FILL
  6
STYLE_05
 62
     7
 10
-87.223231028614165
 20
204.16224836583021
 30
0.0
 11
-80.222239905598883
 21
206.7104007449696
 31
0.0
  0
LINE
  5
B1
  8
PATTERN_FILL
  6
STYLE_05
 62
     7
 10
-87.132004330644591
 20
205.0467943864422
 30
0.0
 11
-80.860698832889582
 21
207.32936291761499
 31
0.0
  0
LINE
  5
B2
  8
PATTERN_FILL
  6
STYLE_05
 62
     7
 10
-86.776139818081575
 20
206.0276606944276
 30
0.0
 11
-81.763795574773624
 21
207.85200480288719
 31
0.0
  0
LINE
  5
B3
  8
PATTERN_FILL
  6
STYLE_05
 62
     7
 10
-85.031959962203544
 20
200.6649092401444
 30
0.0
 11
-86.894054774359404
 21
205.78097268942611
 31
0.0
  0
LINE
  5
B4
  8
PATTERN_FILL
  6
STYLE_05
 62
     7
 10
-84.05900179566234
 20
200.33077216762899
 30
0.0
 11
-86.363504747643091
 21
206.66234199126251
 31
0.0
  0
LINE
  5
B5
  8
PATTERN_FILL
  6
STYLE_05
 62
     7
 10
-83.17934836395689
 20
200.25298774720301
 30
0.0
 11
-85.739649986091095
 21
207.2873586410096
 31
0.0
  0
LINE
  5
B6
  8
PATTERN_FILL
  6
STYLE_05
 62
     7
 10
-82.366045716457009
 20
200.3575006081447
 30
0.0
 11
-85.04944444033363
 21
207.73007800938899
 31
0.0
  0
LINE
  5
B7
  8
PATTERN_FILL
  6
STYLE_05
 62
     7
 10
-81.609961004324859
 20
200.61921845449729
 30
0.0
 11
-84.302020959208292
 21
208.01559239235749
 31
0.0
  0
LINE
  5
B8
  8
PATTERN_FILL
  6
STYLE_05
 62
     7
 10
-80.910519502509814
 20
201.03656224216149
 30
0.0
 11
-83.497954267765877
 21
208.14548083401439
 31
0.0
  0
LINE
  5
B9
  8
PATTERN_FILL
  6
STYLE_05
 62
     7
 10
-80.275248285254847
 20
201.63021243765451
 30
0.0
 11
-82.629717291763328
 21
208.09906286784241
 31
0.0
  0
LINE
  5
BA
  8
PATTERN_FILL
  6
STYLE_05
 62
     7
 10
-83.825956527396613
 20
200.29070185402051
 30
0.0
 11
-80.336121030890027
 21
201.5608980972344
 31
0.0
  0
LINE
  5
BB
  8
PATTERN_FILL
  6
STYLE_05
 62
     7
 10
-86.877525100839577
 20
202.585390597388
 30
0.0
 11
-79.473481374731392
 21
205.28024212689689
 31
0.0
  0
LINE
  5
BC
  8
PATTERN_FILL
  6
STYLE_05
 62
     7
 10
-87.129384525926113
 20
203.3450634814179
 30
0.0
 11
-79.768854178965896
 21
206.02407743612449
 31
0.0
  0
LINE
  5
BD
  8
PATTERN_FILL
  6
STYLE_05
 62
     7
 10
-85.808182878606743
 20
207.23131042642851
 30
0.0
 11
-83.278984743569524
 21
208.15186326414371
 31
0.0
  0
LINE
  5
BE
  8
PATTERN_FILL
  6
STYLE_05
 62
     7
 10
-86.208516934665283
 20
201.55842943455431
 30
0.0
 11
-87.221005995155167
 21
204.34022026569511
 31
0.0
  0
LINE
  5
BF
  8
PATTERN_FILL
  6
STYLE_05
 62
     7
 10
-61.334567599482213
 20
135.30011589566149
 30
0.0
 11
-56.115300273004763
 21
138.21074273102951
 31
0.0
  0
LINE
  5
C0
  8
PATTERN_FILL
  6
STYLE_05
 62
     7
 10
-62.018607886133537
 20
137.1795011372333
 30
0.0
 11
-56.799340559656102
 21
140.09012797260141
 31
0.0
  0
LINE
  5
C1
  8
PATTERN_FILL
  6
STYLE_05
 62
     7
 10
-62.70264817278489
 20
139.05888637880511
 30
0.0
 11
-57.483380846307412
 21
141.96951321417319
 31
0.0
  0
LINE
  5
C2
  8
PATTERN_FILL
  6
STYLE_05
 62
     7
 10
-63.386688459436222
 20
140.9382716203769
 30
0.0
 11
-58.167421132958737
 21
143.848898455745
 31
0.0
  0
LINE
  5
C3
  8
PATTERN_FILL
  6
STYLE_05
 62
     7
 10
-64.070728746087568
 20
142.81765686194871
 30
0.0
 11
-58.851461419610118
 21
145.72828369731681
 31
0.0
  0
LINE
  5
C4
  8
PATTERN_FILL
  6
STYLE_05
 62
     7
 10
-64.754769032738892
 20
144.6970421035206
 30
0.0
 11
-59.535501706261464
 21
147.60766893888859
 31
0.0
  0
LINE
  5
C5
  8
PATTERN_FILL
  6
STYLE_05
 62
     7
 10
-65.438809319390245
 20
146.57642734509241
 30
0.0
 11
-60.219541992912788
 21
149.4870541804604
 31
0.0
  0
LINE
  5
C6
  8
PATTERN_FILL
  6
STYLE_05
 62
     7
 10
-66.122849606041555
 20
148.45581258666419
 30
0.0
 11
-60.903582279564127
 21
151.36643942203219
 31
0.0
  0
LINE
  5
C7
  8
PATTERN_FILL
  6
STYLE_05
 62
     7
 10
-66.806889892692922
 20
150.33519782823601
 30
0.0
 11
-61.58762256621543
 21
153.24582466360411
 31
0.0
  0
LINE
  5
C8
  8
PATTERN_FILL
  6
STYLE_05
 62
     7
 10
-67.490930179344247
 20
152.2145830698079
 30
0.0
 11
-62.271662852866783
 21
155.12520990517581
 31
0.0
  0
LINE
  5
C9
  8
PATTERN_FILL
  6
STYLE_05
 62
     7
 10
-68.1749704659956
 20
154.09396831137971
 30
0.0
 11
-62.955703139518121
 21
157.0045951467477
 31
0.0
  0
LINE
  5
CA
  8
PATTERN_FILL
  6
STYLE_05
 62
     7
 10
-68.859010752646938
 20
155.97335355295141
 30
0.0
 11
-63.63974342616946
 21
158.88398038831949
 31
0.0
  0
LINE
  5
CB
  8
PATTERN_FILL
  6
STYLE_05
 62
     7
 10
-12.714174093636849
 20
159.69601939671011
 30
0.0
 11
-4.2569405065636801
 21
156.61783810677909
 31
0.0
  0
LINE
  5
CC
  8
PATTERN_FILL
  6
STYLE_05
 62
     7
 10
-8.9858094220431752
 20
171.10913890347121
 30
0.0
 11
0.2231782616587594
 21
167.7573414988797
 31
0.0
  0
LINE
  5
CD
  8
PATTERN_FILL
  6
STYLE_05
 62
     7
 10
-4.2569405065636801
 20
156.61783810677909
 30
0.0
 11
0.2231782616587594
 21
167.7573414988797
 31
0.0
  0
LINE
  5
CE
  8
PATTERN_FILL
  6
STYLE_05
 62
     7
 10
-12.714174093636849
 20
159.69601939671011
 30
0.0
 11
-8.9858094220431752
 21
171.10913890347121
 31
0.0
  0
LINE
  5
CF
  8
PATTERN_FILL
  6
STYLE_05
 62
     7
 10
-2.829446842181127
 20
188.02360607761759
 30
0.0
 11
6.3795408415207779
 21
184.67180867302611
 31
0.0
  0
LINE
  5
D0
  8
PATTERN_FILL
  6
STYLE_05
 62
     7
 10
0.2231782616587594
 20
167.7573414988797
 30
0.0
 11
10.715068655141961
 21
196.58357344236771
 31
0.0
  0
LINE
  5
D1
  8
PATTERN_FILL
  6
STYLE_05
 62
     7
 10
-8.9858094220431752
 20
171.10913890347121
 30
0.0
 11
1.506080971440056
 21
199.9353708469593
 31
0.0
  0
CIRCLE
  5
D2
  8
PATTERN_FILL
  6
STYLE_05
 62
     7
 10
8.2734297228575002
 20
204.2018671702541
 30
0.0
 40
8.0000000000000053
  0
CIRCLE
  5
D3
  8
PATTERN_FILL
  6
STYLE_05
 62
     7
 10
8.2734297228575002
 20
204.2018671702541
 30
0.0
 40
3.9499999999999842
  0
CIRCLE
  5
D4
  8
PATTERN_FILL
  6
STYLE_05
 62
     7
 10
8.2734297228575002
 20
204.2018671702541
 30
0.0
 40
5.8499999999999819
  0
LINE
  5
D5
  8
PATTERN_FILL
  6
STYLE_05
 62
     7
 10
11.992219482044231
 20
208.71773948100071
 30
0.0
 11
12.75946365728249
 21
210.82572552767601
 31
0.0
  0
LINE
  5
D6
  8
PATTERN_FILL
  6
STYLE_05
 62
     7
 10
8.3274182609792007
 20
210.05161803997089
 30
0.0
 11
9.0946624362174582
 21
212.15960408664611
 31
0.0
  0
LINE
  5
D7
  8
PATTERN_FILL
  6
STYLE_05
 62
     7
 10
6.2219644610977261
 20
209.68036972841639
 30
0.0
 11
4.7800170814725069
 21
211.39881569841651
 31
0.0
  0
LINE
  5
D8
  8
PATTERN_FILL
  6
STYLE_05
 62
     7
 10
3.234391132933168
 20
207.17349805063949
 30
0.0
 11
1.7924437533083191
 21
208.8919440206393
 31
0.0
  0
LINE
  5
D9
  8
PATTERN_FILL
  6
STYLE_05
 62
     7
 10
13.36645685090379
 20
207.07998715958601
 30
0.0
 11
15.575648405765961
 21
207.46952723626151
 31
0.0
  0
LINE
  5
DA
  8
PATTERN_FILL
  6
STYLE_05
 62
     7
 10
14.043684743803921
 20
203.2392369228383
 30
0.0
 11
16.252876298666258
 21
203.6287769995138
 31
0.0
  0
LINE
  5
DB
  8
PATTERN_FILL
  6
STYLE_05
 62
     7
 10
13.31246831278129
 20
201.23023628986931
 30
0.0
 11
14.754415692406511
 21
199.51179031986919
 31
0.0
  0
LINE
  5
DC
  8
PATTERN_FILL
  6
STYLE_05
 62
     7
 10
10.32489498461787
 20
198.72336461209119
 30
0.0
 11
11.7668423642428
 21
197.00491864209141
 31
0.0
  0
LINE
  5
DD
  8
PATTERN_FILL
  6
STYLE_05
 62
     7
 10
7.4521970094975369
 20
196.24413025386201
 30
0.0
 11
8.2194411847357962
 21
198.35211630053729
 31
0.0
  0
LINE
  5
DE
  8
PATTERN_FILL
  6
STYLE_05
 62
     7
 10
3.7873957884325038
 20
197.57800881283219
 30
0.0
 11
4.5546399636707662
 21
199.6859948595075
 31
0.0
  0
LINE
  5
DF
  8
PATTERN_FILL
  6
STYLE_05
 62
     7
 10
0.9712110399496935
 20
200.93420710424681
 30
0.0
 11
3.180402594812036
 21
201.3237471809224
 31
0.0
  0
LINE
  5
E0
  8
PATTERN_FILL
  6
STYLE_05
 62
     7
 10
0.2939831470480243
 20
204.77495734099429
 30
0.0
 11
2.503174701910253
 21
205.16449741766971
 31
0.0
  0
LINE
  5
E1
  8
PATTERN_FILL
  6
STYLE_05
 62
     7
 10
-30.766439567387248
 20
88.315484856366069
 30
0.0
 11
-34.55000000029294
 21
90.425461571562295
 31
0.0
  0
LINE
  5
E2
  8
PATTERN_FILL
  6
STYLE_05
 62
     7
 10
-29.39835899408455
 20
92.074255339509691
 30
0.0
 11
-34.553939088174658
 21
94.949365740086847
 31
0.0
  0
LINE
  5
E3
  8
PATTERN_FILL
  6
STYLE_05
 62
     7
 10
-28.714318707433179
 20
93.953640581081544
 30
0.0
 11
-33.933586033910771
 21
96.864267416449565
 31
0.0
  0
LINE
  5
E4
  8
PATTERN_FILL
  6
STYLE_05
 62
     7
 10
-28.030278420781841
 20
95.833025822653354
 30
0.0
 11
-33.249545747259432
 21
98.743652658021418
 31
0.0
  0
LINE
  5
E5
  8
PATTERN_FILL
  6
STYLE_05
 62
     7
 10
-27.346238134130481
 20
97.712411064225165
 30
0.0
 11
-32.565505460608072
 21
100.6230378995932
 31
0.0
  0
LINE
  5
E6
  8
PATTERN_FILL
  6
STYLE_05
 62
     7
 10
-26.66219784747911
 20
99.591796305796947
 30
0.0
 11
-31.881465173956741
 21
102.502423141165
 31
0.0
  0
LINE
  5
E7
  8
PATTERN_FILL
  6
STYLE_05
 62
     7
 10
-25.978157560827771
 20
101.4711815473688
 30
0.0
 11
-31.19742488730536
 21
104.38180838273681
 31
0.0
  0
LINE
  5
E8
  8
PATTERN_FILL
  6
STYLE_05
 62
     7
 10
-25.294117274176401
 20
103.3505667889406
 30
0.0
 11
-30.513384600654
 21
106.2611936243087
 31
0.0
  0
LINE
  5
E9
  8
PATTERN_FILL
  6
STYLE_05
 62
     7
 10
-24.61007698752503
 20
105.22995203051239
 30
0.0
 11
-29.82934431400265
 21
108.1405788658805
 31
0.0
  0
LINE
  5
EA
  8
PATTERN_FILL
  6
STYLE_05
 62
     7
 10
-23.926036700873691
 20
107.1093372720842
 30
0.0
 11
-29.14530402735129
 21
110.0199641074523
 31
0.0
  0
LINE
  5
EB
  8
PATTERN_FILL
  6
STYLE_05
 62
     7
 10
-23.24199641422236
 20
108.988722513656
 30
0.0
 11
-28.461263740699948
 21
111.89934934902411
 31
0.0
  0
LINE
  5
EC
  8
PATTERN_FILL
  6
STYLE_05
 62
     7
 10
-22.557956127571011
 20
110.8681077552279
 30
0.0
 11
-27.777223454048581
 21
113.7787345905959
 31
0.0
  0
LINE
  5
ED
  8
PATTERN_FILL
  6
STYLE_05
 62
     7
 10
-21.873915840919679
 20
112.74749299679971
 30
0.0
 11
-27.093183167397221
 21
115.6581198321677
 31
0.0
  0
LINE
  5
EE
  8
PATTERN_FILL
  6
STYLE_05
 62
     7
 10
-21.18987555426834
 20
114.6268782383715
 30
0.0
 11
-26.409142880745868
 21
117.5375050737395
 31
0.0
  0
LINE
  5
EF
  8
PATTERN_FILL
  6
STYLE_05
 62
     7
 10
-20.505835267617002
 20
116.5062634799433
 30
0.0
 11
-25.725102594094508
 21
119.41689031531131
 31
0.0
  0
LINE
  5
F0
  8
PATTERN_FILL
  6
STYLE_05
 62
     7
 10
-19.82179498096566
 20
118.3856487215151
 30
0.0
 11
-25.04106230744317
 21
121.2962755568832
 31
0.0
  0
LINE
  5
F1
  8
PATTERN_FILL
  6
STYLE_05
 62
     7
 10
-19.137754694314321
 20
120.26503396308701
 30
0.0
 11
-24.357022020791799
 21
123.175660798455
 31
0.0
  0
LINE
  5
F2
  8
PATTERN_FILL
  6
STYLE_05
 62
     7
 10
-18.453714407662979
 20
122.1444192046588
 30
0.0
 11
-23.672981734140471
 21
125.0550460400268
 31
0.0
  0
LINE
  5
F3
  8
PATTERN_FILL
  6
STYLE_05
 62
     7
 10
-17.76967412101164
 20
124.0238044462306
 30
0.0
 11
-22.988941447489118
 21
126.93443128159861
 31
0.0
  0
LINE
  5
F4
  8
PATTERN_FILL
  6
STYLE_05
 62
     7
 10
-17.085633834360301
 20
125.9031896878024
 30
0.0
 11
-22.30490116083779
 21
128.81381652317049
 31
0.0
  0
LINE
  5
F5
  8
PATTERN_FILL
  6
STYLE_05
 62
     7
 10
-16.40159354770897
 20
127.78257492937421
 30
0.0
 11
-21.620860874186452
 21
130.6932017647423
 31
0.0
  0
LINE
  5
F6
  8
PATTERN_FILL
  6
STYLE_05
 62
     7
 10
-15.71755326105766
 20
129.661960170946
 30
0.0
 11
-20.936820587535109
 21
132.57258700631411
 31
0.0
  0
LINE
  5
F7
  8
PATTERN_FILL
  6
STYLE_05
 62
     7
 10
-15.033512974406319
 20
131.54134541251781
 30
0.0
 11
-20.25278030088376
 21
134.45197224788589
 31
0.0
  0
LINE
  5
F8
  8
PATTERN_FILL
  6
STYLE_05
 62
     7
 10
-14.349472687754981
 20
133.42073065408971
 30
0.0
 11
-19.568740014232429
 21
136.3313574894577
 31
0.0
  0
LINE
  5
F9
  8
PATTERN_FILL
  6
STYLE_05
 62
     7
 10
-31.450479854038608
 20
86.436099614794273
 30
0.0
 11
-34.55000000029294
 21
88.164607842124354
 31
0.0
  0
LINE
  5
FA
  8
PATTERN_FILL
  6
STYLE_05
 62
     7
 10
-32.134520140689958
 20
84.556714373222462
 30
0.0
 11
-34.55000000029294
 21
85.903754112686457
 31
0.0
  0
LINE
  5
FB
  8
PATTERN_FILL
  6
STYLE_05
 62
     7
 10
-32.818560427341332
 20
82.677329131650623
 30
0.0
 11
-34.55000000029294
 21
83.642900383248559
 31
0.0
  0
LINE
  5
FC
  8
PATTERN_FILL
  6
STYLE_05
 62
     7
 10
-33.502600713992663
 20
80.797943890078813
 30
0.0
 11
-34.55000000029294
 21
81.382046653810676
 31
0.0
  0
LINE
  5
FD
  8
PATTERN_FILL
  6
STYLE_05
 62
     7
 10
-12.714174093636849
 20
159.69601939671011
 30
0.0
 11
-4.2569405065636801
 21
156.61783810677909
 31
0.0
  0
LINE
  5
FE
  8
PATTERN_FILL
  6
STYLE_05
 62
     7
 10
-8.9858094220431752
 20
171.10913890347121
 30
0.0
 11
0.2231782616587594
 21
167.7573414988797
 31
0.0
  0
LINE
  5
FF
  8
PATTERN_FILL
  6
STYLE_05
 62
     7
 10
-4.2569405065636801
 20
156.61783810677909
 30
0.0
 11
0.2231782616587594
 21
167.7573414988797
 31
0.0
  0
LINE
  5
100
  8
PATTERN_FILL
  6
STYLE_05
 62
     7
 10
-12.714174093636849
 20
159.69601939671011
 30
0.0
 11
-8.9858094220431752
 21
171.10913890347121
 31
0.0
  0
LINE
  5
101
  8
PATTERN_FILL
  6
STYLE_05
 62
     7
 10
-2.829446842181127
 20
188.02360607761759
 30
0.0
 11
6.3795408415207779
 21
184.67180867302611
 31
0.0
  0
LINE
  5
102
  8
PATTERN_FILL
  6
STYLE_05
 62
     7
 10
0.2231782616587594
 20
167.7573414988797
 30
0.0
 11
10.715068655141961
 21
196.58357344236771
 31
0.0
  0
LINE
  5
103
  8
PATTERN_FILL
  6
STYLE_05
 62
     7
 10
-8.9858094220431752
 20
171.10913890347121
 30
0.0
 11
1.506080971440056
 21
199.9353708469593
 31
0.0
  0
CIRCLE
  5
104
  8
PATTERN_FILL
  6
STYLE_05
 62
     7
 10
8.2734297228575002
 20
204.2018671702541
 30
0.0
 40
8.0000000000000053
  0
CIRCLE
  5
105
  8
PATTERN_FILL
  6
STYLE_05
 62
     7
 10
8.2734297228575002
 20
204.2018671702541
 30
0.0
 40
3.9499999999999842
  0
CIRCLE
  5
106
  8
PATTERN_FILL
  6
STYLE_05
 62
     7
 10
8.2734297228575002
 20
204.2018671702541
 30
0.0
 40
5.8499999999999819
  0
LINE
  5
107
  8
PATTERN_FILL
  6
STYLE_05
 62
     7
 10
11.992219482044231
 20
208.71773948100071
 30
0.0
 11
12.75946365728249
 21
210.82572552767601
 31
0.0
  0
LINE
  5
108
  8
PATTERN_FILL
  6
STYLE_05
 62
     7
 10
8.3274182609792007
 20
210.05161803997089
 30
0.0
 11
9.0946624362174582
 21
212.15960408664611
 31
0.0
  0
LINE
  5
109
  8
PATTERN_FILL
  6
STYLE_05
 62
     7
 10
6.2219644610977261
 20
209.68036972841639
 30
0.0
 11
4.7800170814725069
 21
211.39881569841651
 31
0.0
  0
LINE
  5
10A
  8
PATTERN_FILL
  6
STYLE_05
 62
     7
 10
3.234391132933168
 20
207.17349805063949
 30
0.0
 11
1.7924437533083191
 21
208.8919440206393
 31
0.0
  0
LINE
  5
10B
  8
PATTERN_FILL
  6
STYLE_05
 62
     7
 10
13.36645685090379
 20
207.07998715958601
 30
0.0
 11
15.575648405765961
 21
207.46952723626151
 31
0.0
  0
LINE
  5
10C
  8
PATTERN_FILL
  6
STYLE_05
 62
     7
 10
14.043684743803921
 20
203.2392369228383
 30
0.0
 11
16.252876298666258
 21
203.6287769995138
 31
0.0
  0
LINE
  5
10D
  8
PATTERN_FILL
  6
STYLE_05
 62
     7
 10
13.31246831278129
 20
201.23023628986931
 30
0.0
 11
14.754415692406511
 21
199.51179031986919
 31
0.0
  0
LINE
  5
10E
  8
PATTERN_FILL
  6
STYLE_05
 62
     7
 10
10.32489498461787
 20
198.72336461209119
 30
0.0
 11
11.7668423642428
 21
197.00491864209141
 31
0.0
  0
LINE
  5
10F
  8
PATTERN_FILL
  6
STYLE_05
 62
     7
 10
7.4521970094975369
 20
196.24413025386201
 30
0.0
 11
8.2194411847357962
 21
198.35211630053729
 31
0.0
  0
LINE
  5
110
  8
PATTERN_FILL
  6
STYLE_05
 62
     7
 10
3.7873957884325038
 20
197.57800881283219
 30
0.0
 11
4.5546399636707662
 21
199.6859948595075
 31
0.0
  0
LINE
  5
111
  8
PATTERN_FILL
  6
STYLE_05
 62
     7
 10
0.9712110399496935
 20
200.93420710424681
 30
0.0
 11
3.180402594812036
 21
201.3237471809224
 31
0.0
  0
LINE
  5
112
  8
PATTERN_FILL
  6
STYLE_05
 62
     7
 10
0.2939831470480243
 20
204.77495734099429
 30
0.0
 11
2.503174701910253
 21
205.16449741766971
 31
0.0
  0
LINE
  5
113
  8
PATTERN_FILL
  6
STYLE_05
 62
     7
 10
-30.08239928073591
 20
90.194870097937866
 30
0.0
 11
-34.55000000029294
 21
92.686315301000192
 31
0.0
  0
LINE
  5
114
  8
PATTERN_FILL
  6
STYLE_05
 62
     7
 10
-29.39835899408455
 20
92.074255339509691
 30
0.0
 11
-34.553939088174658
 21
94.949365740086847
 31
0.0
  0
LINE
  5
115
  8
PATTERN_FILL
  6
STYLE_05
 62
     7
 10
-28.714318707433179
 20
93.953640581081544
 30
0.0
 11
-33.933586033910771
 21
96.864267416449565
 31
0.0
  0
LINE
  5
116
  8
PATTERN_FILL
  6
STYLE_05
 62
     7
 10
-28.030278420781841
 20
95.833025822653354
 30
0.0
 11
-33.249545747259432
 21
98.743652658021418
 31
0.0
  0
LINE
  5
117
  8
PATTERN_FILL
  6
STYLE_05
 62
     7
 10
-27.346238134130481
 20
97.712411064225165
 30
0.0
 11
-32.565505460608072
 21
100.6230378995932
 31
0.0
  0
LINE
  5
118
  8
PATTERN_FILL
  6
STYLE_05
 62
     7
 10
-26.66219784747911
 20
99.591796305796947
 30
0.0
 11
-31.881465173956741
 21
102.502423141165
 31
0.0
  0
LINE
  5
119
  8
PATTERN_FILL
  6
STYLE_05
 62
     7
 10
-25.978157560827771
 20
101.4711815473688
 30
0.0
 11
-31.19742488730536
 21
104.38180838273681
 31
0.0
  0
LINE
  5
11A
  8
PATTERN_FILL
  6
STYLE_05
 62
     7
 10
-25.294117274176401
 20
103.3505667889406
 30
0.0
 11
-30.513384600654
 21
106.2611936243087
 31
0.0
  0
LINE
  5
11B
  8
PATTERN_FILL
  6
STYLE_05
 62
     7
 10
-24.61007698752503
 20
105.22995203051239
 30
0.0
 11
-29.82934431400265
 21
108.1405788658805
 31
0.0
  0
LINE
  5
11C
  8
PATTERN_FILL
  6
STYLE_05
 62
     7
 10
-23.926036700873691
 20
107.1093372720842
 30
0.0
 11
-29.14530402735129
 21
110.0199641074523
 31
0.0
  0
LINE
  5
11D
  8
PATTERN_FILL
  6
STYLE_05
 62
     7
 10
-23.24199641422236
 20
108.988722513656
 30
0.0
 11
-28.461263740699948
 21
111.89934934902411
 31
0.0
  0
LINE
  5
11E
  8
PATTERN_FILL
  6
STYLE_05
 62
     7
 10
-22.557956127571011
 20
110.8681077552279
 30
0.0
 11
-27.777223454048581
 21
113.7787345905959
 31
0.0
  0
LINE
  5
11F
  8
PATTERN_FILL
  6
STYLE_05
 62
     7
 10
-21.873915840919679
 20
112.74749299679971
 30
0.0
 11
-27.093183167397221
 21
115.6581198321677
 31
0.0
  0
LINE
  5
120
  8
PATTERN_FILL
  6
STYLE_05
 62
     7
 10
-21.18987555426834
 20
114.6268782383715
 30
0.0
 11
-26.409142880745868
 21
117.5375050737395
 31
0.0
  0
LINE
  5
121
  8
PATTERN_FILL
  6
STYLE_05
 62
     7
 10
-20.505835267617002
 20
116.5062634799433
 30
0.0
 11
-25.725102594094508
 21
119.41689031531131
 31
0.0
  0
LINE
  5
122
  8
PATTERN_FILL
  6
STYLE_05
 62
     7
 10
-19.82179498096566
 20
118.3856487215151
 30
0.0
 11
-25.04106230744317
 21
121.2962755568832
 31
0.0
  0
LINE
  5
123
  8
PATTERN_FILL
  6
STYLE_05
 62
     7
 10
-19.137754694314321
 20
120.26503396308701
 30
0.0
 11
-24.357022020791799
 21
123.175660798455
 31
0.0
  0
LINE
  5
124
  8
PATTERN_FILL
  6
STYLE_05
 62
     7
 10
-18.453714407662979
 20
122.1444192046588
 30
0.0
 11
-23.672981734140471
 21
125.0550460400268
 31
0.0
  0
LINE
  5
125
  8
PATTERN_FILL
  6
STYLE_05
 62
     7
 10
-17.76967412101164
 20
124.0238044462306
 30
0.0
 11
-22.988941447489118
 21
126.93443128159861
 31
0.0
  0
LINE
  5
126
  8
PATTERN_FILL
  6
STYLE_05
 62
     7
 10
-17.085633834360301
 20
125.9031896878024
 30
0.0
 11
-22.30490116083779
 21
128.81381652317049
 31
0.0
  0
LINE
  5
127
  8
PATTERN_FILL
  6
STYLE_05
 62
     7
 10
-16.40159354770897
 20
127.78257492937421
 30
0.0
 11
-21.620860874186452
 21
130.6932017647423
 31
0.0
  0
LINE
  5
128
  8
PATTERN_FILL
  6
STYLE_05
 62
     7
 10
-15.71755326105766
 20
129.661960170946
 30
0.0
 11
-20.936820587535109
 21
132.57258700631411
 31
0.0
  0
LINE
  5
129
  8
PATTERN_FILL
  6
STYLE_05
 62
     7
 10
-15.033512974406319
 20
131.54134541251781
 30
0.0
 11
-20.25278030088376
 21
134.45197224788589
 31
0.0
  0
LINE
  5
12A
  8
PATTERN_FILL
  6
STYLE_05
 62
     7
 10
-14.349472687754981
 20
133.42073065408971
 30
0.0
 11
-19.568740014232429
 21
136.3313574894577
 31
0.0
  0
LINE
  5
12B
  8
PATTERN_FILL
  6
STYLE_05
 62
     7
 10
4.7269084158910877
 20
202.46270455013101
 30
0.0
 11
6.6745489666979116
 21
207.8138029846869
 31
0.0
  0
LINE
  5
12C
  8
PATTERN_FILL
  6
STYLE_05
 62
     7
 10
4.3481091974949058
 20
203.76100577121079
 30
0.0
 11
5.5498399918367189
 21
207.0627339929282
 31
0.0
  0
LINE
  5
12D
  8
PATTERN_FILL
  6
STYLE_05
 62
     7
 10
10.0759041642611
 20
200.68710033757799
 30
0.0
 11
4.63340562217489
 21
202.6680078069345
 31
0.0
  0
LINE
  5
12E
  8
PATTERN_FILL
  6
STYLE_05
 62
     7
 10
10.889465390085761
 20
201.24233048560541
 30
0.0
 11
4.367076625671344
 21
203.61628585216459
 31
0.0
  0
LINE
  5
12F
  8
PATTERN_FILL
  6
STYLE_05
 62
     7
 10
11.470543950861821
 20
201.88217740369339
 30
0.0
 11
4.3332302942162784
 21
204.47994712733399
 31
0.0
  0
LINE
  5
130
  8
PATTERN_FILL
  6
STYLE_05
 62
     7
 10
12.2232310280283
 20
204.16224836583021
 30
0.0
 11
5.2222399050130122
 21
206.7104007449696
 31
0.0
  0
LINE
  5
131
  8
PATTERN_FILL
  6
STYLE_05
 62
     7
 10
12.132004330058731
 20
205.0467943864422
 30
0.0
 11
5.8606988323037248
 21
207.32936291761499
 31
0.0
  0
LINE
  5
132
  8
PATTERN_FILL
  6
STYLE_05
 62
     7
 10
11.776139817495711
 20
206.0276606944276
 30
0.0
 11
6.7637955741877667
 21
207.85200480288719
 31
0.0
  0
LINE
  5
133
  8
PATTERN_FILL
  6
STYLE_05
 62
     7
 10
10.03195996161768
 20
200.6649092401444
 30
0.0
 11
11.894054773773529
 21
205.78097268942611
 31
0.0
  0
LINE
  5
134
  8
PATTERN_FILL
  6
STYLE_05
 62
     7
 10
9.0590017950764956
 20
200.33077216762899
 30
0.0
 11
11.363504747057229
 21
206.66234199126251
 31
0.0
  0
LINE
  5
135
  8
PATTERN_FILL
  6
STYLE_05
 62
     7
 10
8.1793483633710338
 20
200.25298774720301
 30
0.0
 11
10.73964998550524
 21
207.2873586410096
 31
0.0
  0
LINE
  5
136
  8
PATTERN_FILL
  6
STYLE_05
 62
     7
 10
7.3660457158711523
 20
200.3575006081447
 30
0.0
 11
10.04944443974777
 21
207.73007800938899
 31
0.0
  0
LINE
  5
137
  8
PATTERN_FILL
  6
STYLE_05
 62
     7
 10
6.6099610037390013
 20
200.61921845449729
 30
0.0
 11
9.3020209586224354
 21
208.01559239235749
 31
0.0
  0
LINE
  5
138
  8
PATTERN_FILL
  6
STYLE_05
 62
     7
 10
5.9105195019239556
 20
201.03656224216149
 30
0.0
 11
8.4979542671800186
 21
208.14548083401439
 31
0.0
  0
LINE
  5
139
  8
PATTERN_FILL
  6
STYLE_05
 62
     7
 10
5.2752482846689901
 20
201.63021243765451
 30
0.0
 11
7.6297172911774709
 21
208.09906286784241
 31
0.0
  0
LINE
  5
13A
  8
PATTERN_FILL
  6
STYLE_05
 62
     7
 10
8.8259565268107423
 20
200.29070185402051
 30
0.0
 11
5.3361210303041986
 21
201.5608980972344
 31
0.0
  0
LINE
  5
13B
  8
PATTERN_FILL
  6
STYLE_05
 62
     7
 10
11.877525100253751
 20
202.585390597388
 30
0.0
 11
4.4734813741455204
 21
205.28024212689689
 31
0.0
  0
LINE
  5
13C
  8
PATTERN_FILL
  6
STYLE_05
 62
     7
 10
12.129384525340249
 20
203.3450634814179
 30
0.0
 11
4.768854178380038
 21
206.02407743612449
 31
0.0
  0
LINE
  5
13D
  8
PATTERN_FILL
  6
STYLE_05
 62
     7
 10
10.808182878020901
 20
207.23131042642851
 30
0.0
 11
8.2789847429836652
 21
208.15186326414371
 31
0.0
  0
LINE
  5
13E
  8
PATTERN_FILL
  6
STYLE_05
 62
     7
 10
11.208516934079411
 20
201.55842943455431
 30
0.0
 11
12.221005994569291
 21
204.34022026569511
 31
0.0
  0
LINE
  5
13F
  8
PATTERN_FILL
  6
STYLE_05
 62
     7
 10
-13.66543240110364
 20
135.30011589566149
 30
0.0
 11
-18.88469972758109
 21
138.21074273102951
 31
0.0
  0
LINE
  5
140
  8
PATTERN_FILL
  6
STYLE_05
 62
     7
 10
-12.9813921144523
 20
137.1795011372333
 30
0.0
 11
-18.200659440929751
 21
140.09012797260141
 31
0.0
  0
LINE
  5
141
  8
PATTERN_FILL
  6
STYLE_05
 62
     7
 10
-12.297351827800959
 20
139.05888637880511
 30
0.0
 11
-17.516619154278441
 21
141.96951321417319
 31
0.0
  0
LINE
  5
142
  8
PATTERN_FILL
  6
STYLE_05
 62
     7
 10
-11.613311541149621
 20
140.9382716203769
 30
0.0
 11
-16.832578867627099
 21
143.848898455745
 31
0.0
  0
LINE
  5
143
  8
PATTERN_FILL
  6
STYLE_05
 62
     7
 10
-10.92927125449828
 20
142.81765686194871
 30
0.0
 11
-16.148538580975739
 21
145.72828369731681
 31
0.0
  0
LINE
  5
144
  8
PATTERN_FILL
  6
STYLE_05
 62
     7
 10
-10.24523096784695
 20
144.6970421035206
 30
0.0
 11
-15.4644982943244
 21
147.60766893888859
 31
0.0
  0
LINE
  5
145
  8
PATTERN_FILL
  6
STYLE_05
 62
     7
 10
-9.5611906811956135
 20
146.57642734509241
 30
0.0
 11
-14.78045800767306
 21
149.4870541804604
 31
0.0
  0
LINE
  5
146
  8
PATTERN_FILL
  6
STYLE_05
 62
     7
 10
-8.8771503945442731
 20
148.45581258666419
 30
0.0
 11
-14.096417721021719
 21
151.36643942203219
 31
0.0
  0
LINE
  5
147
  8
PATTERN_FILL
  6
STYLE_05
 62
     7
 10
-8.1931101078929345
 20
150.33519782823601
 30
0.0
 11
-13.412377434370409
 21
153.24582466360411
 31
0.0
  0
LINE
  5
148
  8
PATTERN_FILL
  6
STYLE_05
 62
     7
 10
-7.5090698212415958
 20
152.2145830698079
 30
0.0
 11
-12.728337147719071
 21
155.12520990517581
 31
0.0
  0
LINE
  5
149
  8
PATTERN_FILL
  6
STYLE_05
 62
     7
 10
-6.8250295345902572
 20
154.09396831137971
 30
0.0
 11
-12.04429686106773
 21
157.0045951467477
 31
0.0
  0
LINE
  5
14A
  8
PATTERN_FILL
  6
STYLE_05
 62
     7
 10
-6.1409892479389194
 20
155.97335355295141
 30
0.0
 11
-11.36025657441639
 21
158.88398038831949
 31
0.0
  0
LINE
  5
14B
  8
PATTERN_FILL
  6
STYLE_05
 62
     7
 10
-68.859010752646938
 20
155.97335355295141
 30
0.0
 11
-40.450000000292889
 21
77.920238001815846
 31
0.0
  0
LINE
  5
14C
  8
PATTERN_FILL
  6
STYLE_05
 62
     7
 10
-63.63974342616946
 20
158.88398038831949
 30
0.0
 11
-40.450000000292953
 21
95.170683962778227
 31
0.0
  0
LINE
  5
14D
  8
PATTERN_FILL
  6
STYLE_05
 62
     7
 10
-11.25765053141869
 20
159.16588817455531
 30
0.0
 11
-34.55000000029294
 21
95.170683962778227
 31
0.0
  0
LINE
  5
14E
  8
PATTERN_FILL
  6
STYLE_05
 62
     7
 10
-5.713464068781831
 20
157.14796932893381
 30
0.0
 11
-34.55000000029294
 21
77.920238001815633
 31
0.0
  0
LINE
  5
14F
  8
PATTERN_FILL
  6
STYLE_05
 62
     7
 10
163.1493919455946
 20
160.92237224215609
 30
0.0
 11
154.69215835852151
 21
157.84419095222509
 31
0.0
  0
LINE
  5
150
  8
PATTERN_FILL
  6
STYLE_05
 62
     7
 10
159.42102727400109
 20
172.33549174891741
 30
0.0
 11
150.21203959029921
 21
168.98369434432581
 31
0.0
  0
LINE
  5
151
  8
PATTERN_FILL
  6
STYLE_05
 62
     7
 10
154.69215835852151
 20
157.84419095222509
 30
0.0
 11
150.21203959029921
 21
168.98369434432581
 31
0.0
  0
LINE
  5
152
  8
PATTERN_FILL
  6
STYLE_05
 62
     7
 10
163.1493919455946
 20
160.92237224215609
 30
0.0
 11
159.42102727400109
 21
172.33549174891741
 31
0.0
  0
LINE
  5
153
  8
PATTERN_FILL
  6
STYLE_05
 62
     7
 10
153.2646646941391
 20
189.2499589230637
 30
0.0
 11
144.05567701043719
 21
185.89816151847211
 31
0.0
  0
LINE
  5
154
  8
PATTERN_FILL
  6
STYLE_05
 62
     7
 10
150.21203959029921
 20
168.98369434432581
 30
0.0
 11
139.88165490342939
 21
197.36619300578019
 31
0.0
  0
LINE
  5
155
  8
PATTERN_FILL
  6
STYLE_05
 62
     7
 10
159.42102727400109
 20
172.33549174891741
 30
0.0
 11
149.4884589206109
 21
199.62499901704621
 31
0.0
  0
LINE
  5
156
  8
PATTERN_FILL
  6
STYLE_05
 62
     7
 10
181.2016574193448
 20
89.541837701812128
 30
0.0
 11
184.5449999996633
 21
91.406318293702356
 31
0.0
  0
LINE
  5
157
  8
PATTERN_FILL
  6
STYLE_05
 62
     7
 10
180.5176171326934
 20
91.421222943383967
 30
0.0
 11
184.5449999996633
 21
93.667172023140253
 31
0.0
  0
LINE
  5
158
  8
PATTERN_FILL
  6
STYLE_05
 62
     7
 10
179.83357684604209
 20
93.300608184955806
 30
0.0
 11
184.5449999996633
 21
95.928025752578165
 31
0.0
  0
LINE
  5
159
  8
PATTERN_FILL
  6
STYLE_05
 62
     7
 10
179.1495365593907
 20
95.179993426527602
 30
0.0
 11
184.36880388586809
 21
98.090620261895651
 31
0.0
  0
LINE
  5
15A
  8
PATTERN_FILL
  6
STYLE_05
 62
     7
 10
178.46549627273939
 20
97.059378668099427
 30
0.0
 11
183.68476359921689
 21
99.97000550346749
 31
0.0
  0
LINE
  5
15B
  8
PATTERN_FILL
  6
STYLE_05
 62
     7
 10
177.7814559860881
 20
98.938763909671223
 30
0.0
 11
183.00072331256561
 21
101.8493907450392
 31
0.0
  0
LINE
  5
15C
  8
PATTERN_FILL
  6
STYLE_05
 62
     7
 10
177.09741569943671
 20
100.81814915124301
 30
0.0
 11
182.3166830259141
 21
103.7287759866111
 31
0.0
  0
LINE
  5
15D
  8
PATTERN_FILL
  6
STYLE_05
 62
     7
 10
176.4133754127854
 20
102.6975343928149
 30
0.0
 11
181.63264273926279
 21
105.60816122818289
 31
0.0
  0
LINE
  5
15E
  8
PATTERN_FILL
  6
STYLE_05
 62
     7
 10
175.729335126134
 20
104.5769196343867
 30
0.0
 11
180.94860245261151
 21
107.4875464697547
 31
0.0
  0
LINE
  5
15F
  8
PATTERN_FILL
  6
STYLE_05
 62
     7
 10
175.04529483948269
 20
106.45630487595849
 30
0.0
 11
180.2645621659602
 21
109.3669317113265
 31
0.0
  0
LINE
  5
160
  8
PATTERN_FILL
  6
STYLE_05
 62
     7
 10
174.3612545528313
 20
108.33569011753031
 30
0.0
 11
179.5805218793088
 21
111.2463169528983
 31
0.0
  0
LINE
  5
161
  8
PATTERN_FILL
  6
STYLE_05
 62
     7
 10
173.67721426617999
 20
110.2150753591021
 30
0.0
 11
178.89648159265749
 21
113.12570219447019
 31
0.0
  0
LINE
  5
162
  8
PATTERN_FILL
  6
STYLE_05
 62
     7
 10
172.99317397952871
 20
112.0944606006739
 30
0.0
 11
178.2124413060061
 21
115.005087436042
 31
0.0
  0
LINE
  5
163
  8
PATTERN_FILL
  6
STYLE_05
 62
     7
 10
172.3091336928774
 20
113.97384584224579
 30
0.0
 11
177.52840101935479
 21
116.8844726776138
 31
0.0
  0
LINE
  5
164
  8
PATTERN_FILL
  6
STYLE_05
 62
     7
 10
171.625093406226
 20
115.8532310838176
 30
0.0
 11
176.84436073270351
 21
118.7638579191856
 31
0.0
  0
LINE
  5
165
  8
PATTERN_FILL
  6
STYLE_05
 62
     7
 10
170.9410531195748
 20
117.7326163253894
 30
0.0
 11
176.16032044605211
 21
120.64324316075739
 31
0.0
  0
LINE
  5
166
  8
PATTERN_FILL
  6
STYLE_05
 62
     7
 10
170.25701283292361
 20
119.6120015669612
 30
0.0
 11
175.4762801594008
 21
122.5226284023293
 31
0.0
  0
LINE
  5
167
  8
PATTERN_FILL
  6
STYLE_05
 62
     7
 10
169.5729725462723
 20
121.49138680853299
 30
0.0
 11
174.79223987274949
 21
124.4020136439011
 31
0.0
  0
LINE
  5
168
  8
PATTERN_FILL
  6
STYLE_05
 62
     7
 10
168.8889322596209
 20
123.3707720501048
 30
0.0
 11
174.1081995860981
 21
126.2813988854729
 31
0.0
  0
LINE
  5
169
  8
PATTERN_FILL
  6
STYLE_05
 62
     7
 10
168.20489197296951
 20
125.2501572916767
 30
0.0
 11
173.42415929944681
 21
128.16078412704471
 31
0.0
  0
LINE
  5
16A
  8
PATTERN_FILL
  6
STYLE_05
 62
     7
 10
167.5208516863182
 20
127.1295425332485
 30
0.0
 11
172.74011901279539
 21
130.04016936861649
 31
0.0
  0
LINE
  5
16B
  8
PATTERN_FILL
  6
STYLE_05
 62
     7
 10
166.83681139966691
 20
129.00892777482031
 30
0.0
 11
172.05607872614411
 21
131.9195546101883
 31
0.0
  0
LINE
  5
16C
  8
PATTERN_FILL
  6
STYLE_05
 62
     7
 10
166.15277111301549
 20
130.88831301639209
 30
0.0
 11
171.3720384394928
 21
133.79893985176011
 31
0.0
  0
LINE
  5
16D
  8
PATTERN_FILL
  6
STYLE_05
 62
     7
 10
165.46873082636421
 20
132.7676982579639
 30
0.0
 11
170.6879981528416
 21
135.67832509333189
 31
0.0
  0
LINE
  5
16E
  8
PATTERN_FILL
  6
STYLE_05
 62
     7
 10
164.7846905397129
 20
134.6470834995358
 30
0.0
 11
170.00395786619029
 21
137.55771033490379
 31
0.0
  0
LINE
  5
16F
  8
PATTERN_FILL
  6
STYLE_05
 62
     7
 10
152.15137368150869
 20
198.15630964187361
 30
0.0
 11
145.90950606591781
 21
215.30569997093451
 31
0.0
  0
LINE
  5
170
  8
PATTERN_FILL
  6
STYLE_05
 62
     7
 10
132.789710752443
 20
198.2849914796129
 30
0.0
 11
130.39078153807469
 21
204.87599532695981
 31
0.0
  0
ARC
  5
171
  8
PATTERN_FILL
  6
STYLE_05
 62
     7
 10
146.4949382087315
 20
193.5871928061334
 30
0.0
 40
20.019411788534999
 50
122.96643352930251
 51
143.01534812579141
  0
ARC
  5
172
  8
PATTERN_FILL
  6
STYLE_05
 62
     7
 10
167.39910513832399
 20
157.04992661096151
 30
0.0
 40
62.092978653478283
 50
110.248190345822
 51
120.8036690096267
  0
ARC
  5
173
  8
PATTERN_FILL
  6
STYLE_05
 62
     7
 10
137.8699080925316
 20
217.2842682925085
 30
0.0
 40
20.019411788534988
 50
256.98465187420862
 51
277.03356647069751
  0
ARC
  5
174
  8
PATTERN_FILL
  6
STYLE_05
 62
     7
 10
130.39772700490201
 20
258.71037752123999
 30
0.0
 40
62.092978653478262
 50
279.19633099037321
 51
289.75180965417798
  0
ARC
  5
175
  8
PATTERN_FILL
  6
STYLE_05
 62
     7
 10
131.14253563470351
 20
205.14961144162041
 30
0.0
 40
0.8000000000000173
 50
143.01534812579331
 51
199.99999999999989
  0
ARC
  5
176
  8
PATTERN_FILL
  6
STYLE_05
 62
     7
 10
133.54146484907179
 20
198.55860759427341
 30
0.0
 40
0.8000000000000634
 50
199.99999999999989
 51
256.98465187420521
  0
LINE
  5
177
  8
PATTERN_FILL
  6
STYLE_05
 62
     7
 10
152.15137368150869
 20
198.15630964187361
 30
0.0
 11
150.27198843993679
 21
197.47226935522229
 31
0.0
  0
LINE
  5
178
  8
PATTERN_FILL
  6
STYLE_05
 62
     7
 10
143.10925475734311
 20
208.38030520922629
 30
0.0
 11
142.04899231303349
 21
211.2933523336626
 31
0.0
  0
LINE
  5
179
  8
PATTERN_FILL
  6
STYLE_05
 62
     7
 10
132.93932760990131
 20
204.30629222253521
 30
0.0
 11
132.45810530380371
 21
205.62843964227631
 31
0.0
  0
ARC
  5
17A
  8
PATTERN_FILL
  6
STYLE_05
 62
     7
 10
154.81998354962039
 20
178.7203333462806
 30
0.0
 40
34.987137395296067
 50
111.40878952305169
 51
129.72814558486371
  0
ARC
  5
17B
  8
PATTERN_FILL
  6
STYLE_05
 62
     7
 10
98.913766511968589
 20
303.97459932986999
 30
0.0
 40
105.3162392495628
 50
288.849287427999
 51
294.81220986805192
  0
LINE
  5
17C
  8
PATTERN_FILL
  6
STYLE_05
 62
     7
 10
144.78515345984411
 20
203.77581136681161
 30
0.0
 11
145.8454159041537
 21
200.86276424237531
 31
0.0
  0
LINE
  5
17D
  8
PATTERN_FILL
  6
STYLE_05
 62
     7
 10
134.37581221207441
 20
200.35958321467049
 30
0.0
 11
134.85703451817199
 21
199.03743579492939
 31
0.0
  0
ARC
  5
17E
  8
PATTERN_FILL
  6
STYLE_05
 62
     7
 10
134.69102975888859
 20
234.02417936356159
 30
0.0
 40
34.987137395296131
 50
270.27185441513632
 51
288.59121047694839
  0
ARC
  5
17F
  8
PATTERN_FILL
  6
STYLE_05
 62
     7
 10
172.3762730960253
 20
102.13802131363749
 30
0.0
 40
105.3162392495627
 50
105.18779013194801
 51
111.1507125720008
  0
LINE
  5
180
  8
PATTERN_FILL
  6
STYLE_05
 62
     7
 10
181.88569770599611
 20
87.662452460240345
 30
0.0
 11
184.5449999996633
 21
89.145464564264444
 31
0.0
  0
LINE
  5
181
  8
PATTERN_FILL
  6
STYLE_05
 62
     7
 10
182.56973799264739
 20
85.783067218668521
 30
0.0
 11
184.5449999996633
 21
86.884610834826546
 31
0.0
  0
LINE
  5
182
  8
PATTERN_FILL
  6
STYLE_05
 62
     7
 10
164.1006502530615
 20
136.52646874110761
 30
0.0
 11
169.31991757953901
 21
139.4370955764756
 31
0.0
  0
LINE
  5
183
  8
PATTERN_FILL
  6
STYLE_05
 62
     7
 10
163.41660996641019
 20
138.40585398267939
 30
0.0
 11
168.63587729288761
 21
141.31648081804741
 31
0.0
  0
LINE
  5
184
  8
PATTERN_FILL
  6
STYLE_05
 62
     7
 10
162.7325696797588
 20
140.2852392242512
 30
0.0
 11
167.9518370062363
 21
143.19586605961919
 31
0.0
  0
LINE
  5
185
  8
PATTERN_FILL
  6
STYLE_05
 62
     7
 10
162.04852939310749
 20
142.16462446582301
 30
0.0
 11
167.26779671958491
 21
145.07525130119109
 31
0.0
  0
LINE
  5
186
  8
PATTERN_FILL
  6
STYLE_05
 62
     7
 10
161.36448910645609
 20
144.04400970739479
 30
0.0
 11
166.5837564329336
 21
146.9546365427629
 31
0.0
  0
LINE
  5
187
  8
PATTERN_FILL
  6
STYLE_05
 62
     7
 10
160.68044881980481
 20
145.9233949489666
 30
0.0
 11
165.8997161462822
 21
148.83402178433471
 31
0.0
  0
LINE
  5
188
  8
PATTERN_FILL
  6
STYLE_05
 62
     7
 10
159.9964085331535
 20
147.80278019053841
 30
0.0
 11
165.21567585963089
 21
150.71340702590649
 31
0.0
  0
LINE
  5
189
  8
PATTERN_FILL
  6
STYLE_05
 62
     7
 10
159.3123682465021
 20
149.68216543211031
 30
0.0
 11
164.53163557297961
 21
152.5927922674783
 31
0.0
  0
LINE
  5
18A
  8
PATTERN_FILL
  6
STYLE_05
 62
     7
 10
158.62832795985079
 20
151.56155067368209
 30
0.0
 11
163.8475952863283
 21
154.4721775090502
 31
0.0
  0
LINE
  5
18B
  8
PATTERN_FILL
  6
STYLE_05
 62
     7
 10
157.9442876731994
 20
153.4409359152539
 30
0.0
 11
163.1635549996769
 21
156.35156275062201
 31
0.0
  0
LINE
  5
18C
  8
PATTERN_FILL
  6
STYLE_05
 62
     7
 10
157.26024738654809
 20
155.32032115682571
 30
0.0
 11
162.47951471302559
 21
158.23094799219379
 31
0.0
  0
LINE
  5
18D
  8
PATTERN_FILL
  6
STYLE_05
 62
     7
 10
156.57620709989681
 20
157.19970639839761
 30
0.0
 11
161.7954744263742
 21
160.1103332337656
 31
0.0
  0
LINE
  5
18E
  8
PATTERN_FILL
  6
STYLE_05
 62
     7
 10
220.01309413407489
 20
156.35640332875849
 30
0.0
 11
211.5558605470018
 21
159.43458461868951
 31
0.0
  0
LINE
  5
18F
  8
PATTERN_FILL
  6
STYLE_05
 62
     7
 10
224.49321290229739
 20
167.4959067208591
 30
0.0
 11
215.28422521859559
 21
170.8477041254506
 31
0.0
  0
LINE
  5
190
  8
PATTERN_FILL
  6
STYLE_05
 62
     7
 10
211.5558605470018
 20
159.43458461868951
 30
0.0
 11
215.28422521859559
 21
170.8477041254506
 31
0.0
  0
LINE
  5
191
  8
PATTERN_FILL
  6
STYLE_05
 62
     7
 10
220.01309413407489
 20
156.35640332875849
 30
0.0
 11
224.49321290229739
 21
167.4959067208591
 31
0.0
  0
LINE
  5
192
  8
PATTERN_FILL
  6
STYLE_05
 62
     7
 10
230.64957548215941
 20
184.41037389500539
 30
0.0
 11
221.44058779845761
 21
187.76217129959699
 31
0.0
  0
LINE
  5
193
  8
PATTERN_FILL
  6
STYLE_05
 62
     7
 10
215.28422521859559
 20
170.8477041254506
 30
0.0
 11
225.6146099054653
 21
199.2302027869051
 31
0.0
  0
LINE
  5
194
  8
PATTERN_FILL
  6
STYLE_05
 62
     7
 10
224.49321290229739
 20
167.4959067208591
 30
0.0
 11
234.4257812556875
 21
194.78541398898801
 31
0.0
  0
LINE
  5
195
  8
PATTERN_FILL
  6
STYLE_05
 62
     7
 10
190.44499999966331
 20
89.595437301363305
 30
0.0
 11
193.82851420941091
 21
88.946758068092123
 31
0.0
  0
LINE
  5
196
  8
PATTERN_FILL
  6
STYLE_05
 62
     7
 10
190.44499999966331
 20
91.605965106898125
 30
0.0
 11
194.51255449606231
 21
90.826143309663905
 31
0.0
  0
LINE
  5
197
  8
PATTERN_FILL
  6
STYLE_05
 62
     7
 10
190.44499999966331
 20
93.61649291243296
 30
0.0
 11
195.19659478271359
 21
92.705528551235744
 31
0.0
  0
LINE
  5
198
  8
PATTERN_FILL
  6
STYLE_05
 62
     7
 10
190.44499999966331
 20
95.627020717967781
 30
0.0
 11
195.8806350693649
 21
94.584913792807555
 31
0.0
  0
LINE
  5
199
  8
PATTERN_FILL
  6
STYLE_05
 62
     7
 10
190.69556975722011
 20
97.58950989025422
 30
0.0
 11
196.56467535601629
 21
96.464299034379366
 31
0.0
  0
LINE
  5
19A
  8
PATTERN_FILL
  6
STYLE_05
 62
     7
 10
191.37961004387139
 20
99.468895131826002
 30
0.0
 11
197.24871564266769
 21
98.34368427595119
 31
0.0
  0
LINE
  5
19B
  8
PATTERN_FILL
  6
STYLE_05
 62
     7
 10
192.06365033052279
 20
101.3482803733978
 30
0.0
 11
197.932755929319
 21
100.223069517523
 31
0.0
  0
LINE
  5
19C
  8
PATTERN_FILL
  6
STYLE_05
 62
     7
 10
192.7476906171741
 20
103.2276656149696
 30
0.0
 11
198.6167962159704
 21
102.1024547590948
 31
0.0
  0
LINE
  5
19D
  8
PATTERN_FILL
  6
STYLE_05
 62
     7
 10
193.43173090382541
 20
105.10705085654141
 30
0.0
 11
199.30083650262171
 21
103.98184000066659
 31
0.0
  0
LINE
  5
19E
  8
PATTERN_FILL
  6
STYLE_05
 62
     7
 10
194.11577119047681
 20
106.9864360981133
 30
0.0
 11
199.98487678927299
 21
105.8612252422384
 31
0.0
  0
LINE
  5
19F
  8
PATTERN_FILL
  6
STYLE_05
 62
     7
 10
194.79981147712809
 20
108.8658213396851
 30
0.0
 11
200.66891707592441
 21
107.7406104838102
 31
0.0
  0
LINE
  5
1A0
  8
PATTERN_FILL
  6
STYLE_05
 62
     7
 10
195.4838517637794
 20
110.74520658125689
 30
0.0
 11
201.35295736257569
 21
109.6199957253821
 31
0.0
  0
LINE
  5
1A1
  8
PATTERN_FILL
  6
STYLE_05
 62
     7
 10
196.16789205043079
 20
112.62459182282871
 30
0.0
 11
202.036997649227
 21
111.49938096695389
 31
0.0
  0
LINE
  5
1A2
  8
PATTERN_FILL
  6
STYLE_05
 62
     7
 10
196.8519323370821
 20
114.5039770644005
 30
0.0
 11
202.7210379358784
 21
113.3787662085257
 31
0.0
  0
LINE
  5
1A3
  8
PATTERN_FILL
  6
STYLE_05
 62
     7
 10
197.5359726237335
 20
116.3833623059723
 30
0.0
 11
203.40507822252971
 21
115.2581514500975
 31
0.0
  0
LINE
  5
1A4
  8
PATTERN_FILL
  6
STYLE_05
 62
     7
 10
198.22001291038481
 20
118.26274754754419
 30
0.0
 11
204.08911850918099
 21
117.1375366916693
 31
0.0
  0
LINE
  5
1A5
  8
PATTERN_FILL
  6
STYLE_05
 62
     7
 10
198.90405319703609
 20
120.142132789116
 30
0.0
 11
204.77315879583239
 21
119.01692193324121
 31
0.0
  0
LINE
  5
1A6
  8
PATTERN_FILL
  6
STYLE_05
 62
     7
 10
199.58809348368749
 20
122.0215180306878
 30
0.0
 11
205.4571990824837
 21
120.896307174813
 31
0.0
  0
LINE
  5
1A7
  8
PATTERN_FILL
  6
STYLE_05
 62
     7
 10
200.27213377033891
 20
123.9009032722596
 30
0.0
 11
206.14123936913501
 21
122.7756924163848
 31
0.0
  0
LINE
  5
1A8
  8
PATTERN_FILL
  6
STYLE_05
 62
     7
 10
200.95617405699011
 20
125.78028851383139
 30
0.0
 11
206.8252796557864
 21
124.6550776579566
 31
0.0
  0
LINE
  5
1A9
  8
PATTERN_FILL
  6
STYLE_05
 62
     7
 10
201.6402143436415
 20
127.6596737554033
 30
0.0
 11
207.50931994243771
 21
126.53446289952841
 31
0.0
  0
LINE
  5
1AA
  8
PATTERN_FILL
  6
STYLE_05
 62
     7
 10
202.32425463029281
 20
129.53905899697509
 30
0.0
 11
208.19336022908911
 21
128.4138481411002
 31
0.0
  0
LINE
  5
1AB
  8
PATTERN_FILL
  6
STYLE_05
 62
     7
 10
203.0082949169441
 20
131.4184442385469
 30
0.0
 11
208.87740051574039
 21
130.29323338267201
 31
0.0
  0
LINE
  5
1AC
  8
PATTERN_FILL
  6
STYLE_05
 62
     7
 10
203.69233520359549
 20
133.29782948011871
 30
0.0
 11
209.5614408023917
 21
132.17261862424391
 31
0.0
  0
LINE
  5
1AD
  8
PATTERN_FILL
  6
STYLE_05
 62
     7
 10
204.37637549024689
 20
135.17721472169049
 30
0.0
 11
210.2454810890431
 21
134.05200386581569
 31
0.0
  0
LINE
  5
1AE
  8
PATTERN_FILL
  6
STYLE_05
 62
     7
 10
235.5216369779335
 20
191.9486440405127
 30
0.0
 11
241.76350459352429
 21
209.09803436957361
 31
0.0
  0
LINE
  5
1AF
  8
PATTERN_FILL
  6
STYLE_05
 62
     7
 10
220.77245777247049
 20
204.4926570809738
 30
0.0
 11
223.1713869868388
 21
211.0836609283208
 31
0.0
  0
ARC
  5
1B0
  8
PATTERN_FILL
  6
STYLE_05
 62
     7
 10
228.2515843269274
 20
192.08438411542519
 30
0.0
 40
20.019411788534988
 50
82.966433529302435
 51
103.01534812579141
  0
ARC
  5
1B1
  8
PATTERN_FILL
  6
STYLE_05
 62
     7
 10
220.77940323929801
 20
150.65827488669359
 30
0.0
 40
62.092978653478283
 50
70.248190345822039
 51
80.803669009626731
  0
ARC
  5
1B2
  8
PATTERN_FILL
  6
STYLE_05
 62
     7
 10
236.87661444312729
 20
215.78145960180029
 30
0.0
 40
20.019411788534988
 50
216.98465187420871
 51
237.03356647069751
  0
ARC
  5
1B3
  8
PATTERN_FILL
  6
STYLE_05
 62
     7
 10
257.78078137271979
 20
252.31872579697219
 30
0.0
 40
62.092978653478283
 50
239.19633099037321
 51
249.75180965417789
  0
ARC
  5
1B4
  8
PATTERN_FILL
  6
STYLE_05
 62
     7
 10
223.92314108346761
 20
210.8100448136602
 30
0.0
 40
0.8000000000000248
 50
103.0153481257946
 51
159.99999999999909
  0
ARC
  5
1B5
  8
PATTERN_FILL
  6
STYLE_05
 62
     7
 10
221.5242118690993
 20
204.21904096631329
 30
0.0
 40
0.8000000000000683
 50
159.99999999999909
 51
216.98465187420459
  0
LINE
  5
1B6
  8
PATTERN_FILL
  6
STYLE_05
 62
     7
 10
235.5216369779335
 20
191.9486440405127
 30
0.0
 11
233.64225173636169
 21
192.63268432716399
 31
0.0
  0
LINE
  5
1B7
  8
PATTERN_FILL
  6
STYLE_05
 62
     7
 10
235.16682969423999
 20
205.59284104112211
 30
0.0
 11
236.22709213854949
 21
208.50588816555839
 31
0.0
  0
LINE
  5
1B8
  8
PATTERN_FILL
  6
STYLE_05
 62
     7
 10
224.75748844647021
 20
209.0090691932632
 30
0.0
 11
225.23871075256781
 21
210.3312166130043
 31
0.0
  0
ARC
  5
1B9
  8
PATTERN_FILL
  6
STYLE_05
 62
     7
 10
225.07270599328439
 20
175.34447304437211
 30
0.0
 40
34.98713739529606
 50
71.408789523051723
 51
89.728145584863697
  0
ARC
  5
1BA
  8
PATTERN_FILL
  6
STYLE_05
 62
     7
 10
262.7579493304213
 20
307.23063109429609
 30
0.0
 40
105.3162392495627
 50
248.849287427999
 51
254.81220986805189
  0
LINE
  5
1BB
  8
PATTERN_FILL
  6
STYLE_05
 62
     7
 10
233.49093099173891
 20
200.98834719870729
 30
0.0
 11
232.43066854742941
 21
198.07530007427101
 31
0.0
  0
LINE
  5
1BC
  8
PATTERN_FILL
  6
STYLE_05
 62
     7
 10
223.32100384429719
 20
205.06236018539849
 30
0.0
 11
222.83978153819959
 21
203.7402127656573
 31
0.0
  0
ARC
  5
1BD
  8
PATTERN_FILL
  6
STYLE_05
 62
     7
 10
245.20165978401619
 20
230.64831906165301
 30
0.0
 40
34.987137395296109
 50
230.27185441513629
 51
248.59121047694831
  0
ARC
  5
1BE
  8
PATTERN_FILL
  6
STYLE_05
 62
     7
 10
189.2954427463645
 20
105.39405307806371
 30
0.0
 40
105.3162392495627
 50
65.187790131948105
 51
71.150712572000984
  0
LINE
  5
1BF
  8
PATTERN_FILL
  6
STYLE_05
 62
     7
 10
190.44499999966331
 20
87.584909495828484
 30
0.0
 11
193.1444739227596
 21
87.067372826520284
 31
0.0
  0
LINE
  5
1C0
  8
PATTERN_FILL
  6
STYLE_05
 62
     7
 10
190.44499999966331
 20
85.574381690293649
 30
0.0
 11
192.46043363610829
 21
85.187987584948445
 31
0.0
  0
LINE
  5
1C1
  8
PATTERN_FILL
  6
STYLE_05
 62
     7
 10
205.0604157768982
 20
137.0565999632623
 30
0.0
 11
210.92952137569441
 21
135.9313891073875
 31
0.0
  0
LINE
  5
1C2
  8
PATTERN_FILL
  6
STYLE_05
 62
     7
 10
205.74445606354959
 20
138.93598520483411
 30
0.0
 11
211.61356166234569
 21
137.81077434895931
 31
0.0
  0
LINE
  5
1C3
  8
PATTERN_FILL
  6
STYLE_05
 62
     7
 10
206.4284963502009
 20
140.81537044640601
 30
0.0
 11
212.29760194899711
 21
139.6901595905311
 31
0.0
  0
LINE
  5
1C4
  8
PATTERN_FILL
  6
STYLE_05
 62
     7
 10
207.11253663685221
 20
142.69475568797779
 30
0.0
 11
212.98164223564839
 21
141.56954483210291
 31
0.0
  0
LINE
  5
1C5
  8
PATTERN_FILL
  6
STYLE_05
 62
     7
 10
207.79657692350361
 20
144.5741409295496
 30
0.0
 11
213.66568252229979
 21
143.44893007367469
 31
0.0
  0
LINE
  5
1C6
  8
PATTERN_FILL
  6
STYLE_05
 62
     7
 10
208.48061721015489
 20
146.45352617112141
 30
0.0
 11
214.34972280895121
 21
145.32831531524661
 31
0.0
  0
LINE
  5
1C7
  8
PATTERN_FILL
  6
STYLE_05
 62
     7
 10
209.1646574968062
 20
148.33291141269319
 30
0.0
 11
215.0337630956025
 21
147.20770055681839
 31
0.0
  0
LINE
  5
1C8
  8
PATTERN_FILL
  6
STYLE_05
 62
     7
 10
209.8486977834576
 20
150.212296654265
 30
0.0
 11
215.71780338225381
 21
149.08708579839021
 31
0.0
  0
LINE
  5
1C9
  8
PATTERN_FILL
  6
STYLE_05
 62
     7
 10
210.53273807010891
 20
152.0916818958369
 30
0.0
 11
216.4018436689052
 21
150.9664710399621
 31
0.0
  0
LINE
  5
1CA
  8
PATTERN_FILL
  6
STYLE_05
 62
     7
 10
211.21677835676019
 20
153.97106713740871
 30
0.0
 11
217.08588395555651
 21
152.84585628153391
 31
0.0
  0
LINE
  5
1CB
  8
PATTERN_FILL
  6
STYLE_05
 62
     7
 10
211.90081864341161
 20
155.85045237898049
 30
0.0
 11
217.76992424220779
 21
154.72524152310561
 31
0.0
  0
LINE
  5
1CC
  8
PATTERN_FILL
  6
STYLE_05
 62
     7
 10
212.58485893006289
 20
157.7298376205523
 30
0.0
 11
218.4539645288591
 21
156.6046267646775
 31
0.0
  0
LINE
  5
1CD
  8
PATTERN_FILL
  6
STYLE_05
 62
     7
 10
156.1486819207397
 20
158.37432217438001
 30
0.0
 11
184.5449999996633
 21
80.356079456885723
 31
0.0
  0
LINE
  5
1CE
  8
PATTERN_FILL
  6
STYLE_05
 62
     7
 10
161.69286838337661
 20
160.39224102000139
 30
0.0
 11
184.5449999996633
 21
97.606525417847877
 31
0.0
  0
LINE
  5
1CF
  8
PATTERN_FILL
  6
STYLE_05
 62
     7
 10
213.01238410921999
 20
158.90445339653471
 30
0.0
 11
190.44499999966331
 21
96.901075139368743
 31
0.0
  0
LINE
  5
1D0
  8
PATTERN_FILL
  6
STYLE_05
 62
     7
 10
218.55657057185681
 20
156.8865345509133
 30
0.0
 11
190.44499999966331
 21
79.650629178406533
 31
0.0
  0
LINE
  5
1D1
  8
SPEC
  6
CONTINUOUS
 62
     7
 10
-147.49999999999989
 20
507.06362999999988
 30
0.0
 11
295.0
 21
507.06362999999988
 31
0.0
  0
LINE
  5
1D2
  8
SPEC
  6
CONTINUOUS
 62
     7
 10
-147.49999999999989
 20
495.81362999999988
 30
0.0
 11
295.0
 21
495.81362999999988
 31
0.0
  0
LINE
  5
1D3
  8
SPEC
  6
CONTINUOUS
 62
     7
 10
-147.49999999999989
 20
450.81362999999988
 30
0.0
 11
295.0
 21
450.81362999999988
 31
0.0
  0
LINE
  5
1D4
  8
SPEC
  6
CONTINUOUS
 62
     7
 10
-147.49999999999989
 20
462.06362999999988
 30
0.0
 11
295.0
 21
462.06362999999988
 31
0.0
  0
LINE
  5
1D5
  8
SPEC
  6
CONTINUOUS
 62
     7
 10
-147.49999999999989
 20
473.31362999999988
 30
0.0
 11
295.0
 21
473.31362999999988
 31
0.0
  0
LINE
  5
1D6
  8
SPEC
  6
CONTINUOUS
 62
     7
 10
-147.49999999999989
 20
439.56362999999988
 30
0.0
 11
295.0
 21
439.56362999999988
 31
0.0
  0
LINE
  5
1D7
  8
SPEC
  6
CONTINUOUS
 62
     7
 10
-147.49999999999989
 20
417.06362999999988
 30
0.0
 11
295.0
 21
417.06362999999988
 31
0.0
  0
LINE
  5
1D8
  8
SPEC
  6
CONTINUOUS
 62
     7
 10
-147.49999999999989
 20
428.31362999999988
 30
0.0
 11
295.0
 21
428.31362999999988
 31
0.0
  0
LINE
  5
1D9
  8
SPEC
  6
CONTINUOUS
 62
     7
 10
-147.49999999999989
 20
405.81362999999988
 30
0.0
 11
295.0
 21
405.81362999999988
 31
0.0
  0
LINE
  5
1DA
  8
SPEC
  6
CONTINUOUS
 62
     7
 10
-147.49999999999989
 20
394.56362999999988
 30
0.0
 11
295.0
 21
394.56362999999988
 31
0.0
  0
LINE
  5
1DB
  8
SPEC
  6
CONTINUOUS
 62
     7
 10
-147.49999999999989
 20
484.56362999999988
 30
0.0
 11
295.0
 21
484.56362999999988
 31
0.0
  0
TEXT
  5
1DC
  8
SPEC
 62
     7
 10
-48.127074084484001
 20
498.39578383497718
 30
0.0
 40
5.700933749999999
  1
コンデンサー型 
 41
0.7
 11
-48.127074084484001
 21
504.09671758497711
 31
0.0
 73
     3
  0
LINE
  5
1DD
  8
SPEC
  6
CONTINUOUS
 62
     7
 10
-147.49999999999989
 20
507.06362999999988
 30
0.0
 11
-147.49999999999989
 21
360.81362999999988
 31
0.0
  0
TEXT
  5
1DE
  8
SPEC
 62
     7
 10
-143.74999999999989
 20
511.24343999999979
 30
0.0
 40
7.3297851562499989
  1
仕様
 41
0.7
 11
-143.74999999999989
 21
518.57322515624992
 31
0.0
 73
     3
  0
LINE
  5
1DF
  8
SPEC
  6
CONTINUOUS
 62
     7
 10
-50.0
 20
507.06362999999988
 30
0.0
 11
-50.0
 21
360.81362999999988
 31
0.0
  0
TEXT
  5
1E0
  8
SPEC
 62
     7
 10
-145.0197742660005
 20
498.56238159993882
 30
0.0
 40
5.700933749999999
  1
形式
 41
0.7
 11
-145.0197742660005
 21
504.26331534993869
 31
0.0
 73
     3
  0
TEXT
  5
1E1
  8
SPEC
 62
     7
 10
-47.887812093355123
 20
487.63082664377168
 30
0.0
 40
5.700933749999999
  1
カーディオイド
 41
0.7
 11
-47.887812093355123
 21
493.33176039377162
 31
0.0
 73
     3
  0
TEXT
  5
1E2
  8
SPEC
 62
     7
 10
-144.96131248116669
 20
487.37465711001249
 30
0.0
 40
5.700933749999999
  1
指向特性
 41
0.7
 11
-144.96131248116669
 21
493.07559086001248
 31
0.0
 73
     3
  0
TEXT
  5
1E3
  8
SPEC
 62
     7
 10
-47.357627176609249
 20
475.94958406080423
 30
0.0
 40
5.700933749999999
  1
60Hz～20kHz
 41
0.7
 11
-47.357627176609249
 21
481.6505178108041
 31
0.0
 73
     3
  0
TEXT
  5
1E4
  8
SPEC
 62
     7
 10
-144.83944115332471
 20
476.27386479285428
 30
0.0
 40
5.700933749999999
  1
周波数特性
 41
0.7
 11
-144.83944115332471
 21
481.97479854285427
 31
0.0
 73
     3
  0
TEXT
  5
1E5
  8
SPEC
 62
     7
 10
-47.180235631088763
 20
465.08920630931982
 30
0.0
 40
5.700933749999999
  1
-46dBV re 1V/Pa
 41
0.7
 11
-47.180235631088763
 21
470.79014005931992
 31
0.0
 73
     3
  0
TEXT
  5
1E6
  8
SPEC
 62
     7
 10
-145.20801113582789
 20
465.128551252644
 30
0.0
 40
5.700933749999999
  1
閉回路感度
 41
0.7
 11
-145.20801113582789
 21
470.82948500264388
 31
0.0
 73
     3
  0
TEXT
  5
1E7
  8
SPEC
 62
     7
 10
-47.714537682776992
 20
453.73011171036973
 30
0.0
 40
5.700933749999999
  1
132dB SPL(THD3%%%) 
 41
0.7
 11
-47.714537682776992
 21
459.43104546036972
 31
0.0
 73
     3
  0
TEXT
  5
1E8
  8
SPEC
 62
     7
 10
-144.777432733594
 20
453.74672619114511
 30
0.0
 40
5.700933749999999
  1
最大音圧レベル
 41
0.7
 11
-144.777432733594
 21
459.4476599411451
 31
0.0
 73
     3
  0
TEXT
  5
1E9
  8
SPEC
 62
     7
 10
-47.265591609661513
 20
442.2026619227077
 30
0.0
 40
5.700933749999999
  1
31dB SPL(Aウェイト）
 41
0.7
 11
-47.265591609661513
 21
447.90359567270758
 31
0.0
 73
     3
  0
TEXT
  5
1EA
  8
SPEC
 62
     7
 10
-144.8753543902049
 20
442.62563481761521
 30
0.0
 40
5.700933749999999
  1
等価雑音レベル
 41
0.7
 11
-144.8753543902049
 21
448.3265685676152
 31
0.0
 73
     3
  0
TEXT
  5
1EB
  8
SPEC
 62
     7
 10
-47.334272512484382
 20
431.05439243732832
 30
0.0
 40
5.700933749999999
  1
200\U+03A9以下
 41
0.7
 11
-47.334272512484382
 21
436.75532618732831
 31
0.0
 73
     3
  0
TEXT
  5
1EC
  8
SPEC
 62
     7
 10
-145.20553781484529
 20
431.13373860751079
 30
0.0
 40
5.700933749999999
  1
インピーダンス
 41
0.7
 11
-145.20553781484529
 21
436.83467235751078
 31
0.0
 73
     3
  0
TEXT
  5
1ED
  8
SPEC
 62
     7
 10
-48.688853495729411
 20
419.97257177274918
 30
0.0
 40
5.700933749999999
  1
ミニXLR 3ピン(メス)
 41
0.7
 11
-48.688853495729411
 21
425.67350552274922
 31
0.0
 73
     3
  0
TEXT
  5
1EE
  8
SPEC
 62
     7
 10
-145.607872712757
 20
420.10943803158472
 30
0.0
 40
5.700933749999999
  1
コネクター
 41
0.7
 11
-145.607872712757
 21
425.81037178158471
 31
0.0
 73
     3
  0
TEXT
  5
1EF
  8
SPEC
 62
     7
 10
-47.350943044159898
 20
408.63588219743917
 30
0.0
 40
5.700933749999999
  1
別売のAKGワイヤレスシステムのボディパック型 送信機、またはポータ ブルミキサー(B29L）に対応
 41
0.7
 11
-47.350943044159898
 21
414.33681594743922
 31
0.0
 73
     3
  0
TEXT
  5
1F0
  8
SPEC
 62
     7
 10
-145.02972737948639
 20
408.82828904187858
 30
0.0
 40
5.700933749999999
  1
電源
 41
0.7
 11
-145.02972737948639
 21
414.52922279187851
 31
0.0
 73
     3
  0
LINE
  5
1F1
  8
SPEC
  6
CONTINUOUS
 62
     7
 10
-147.49999999999989
 20
383.31362999999988
 30
0.0
 11
295.0
 21
383.31362999999988
 31
0.0
  0
LINE
  5
1F2
  8
SPEC
  6
CONTINUOUS
 62
     7
 10
-147.49999999999989
 20
360.81362999999988
 30
0.0
 11
295.0
 21
360.81362999999988
 31
0.0
  0
TEXT
  5
1F3
  8
SPEC
 62
     7
 10
-47.466139759053711
 20
374.92710106922061
 30
0.0
 40
5.7009440104166647
  1
接続ケーブル(1.5m、ミニXLR対ミニXLR)、マウントプレート、マウントネジ、送信機ホルダー、
 41
0.7
 11
-47.466139759053711
 21
380.62804507963722
 31
0.0
 73
     3
  0
TEXT
  5
1F4
  8
SPEC
 62
     7
 10
-47.186948009108967
 20
397.29960167936122
 30
0.0
 40
5.7009440104166647
  1
47(W)\U+00D7235(H)\U+00D725(D)mm(突起は含まず) 
 41
0.7
 11
-47.186948009108967
 21
403.00054568977788
 31
0.0
 73
     3
  0
TEXT
  5
1F5
  8
SPEC
 62
     7
 10
-145.13558990403209
 20
397.86254716180332
 30
0.0
 40
5.7009440104166647
  1
寸法
 41
0.7
 11
-145.13558990403209
 21
403.56349117221993
 31
0.0
 73
     3
  0
TEXT
  5
1F6
  8
SPEC
 62
     7
 10
-145.00726976967661
 20
386.42558443192331
 30
0.0
 40
5.7009440104166647
  1
重量
 41
0.7
 11
-145.00726976967661
 21
392.12652844233992
 31
0.0
 73
     3
  0
TEXT
  5
1F7
  8
SPEC
 62
     7
 10
-144.84213594776941
 20
375.28472050441269
 30
0.0
 40
5.7009440104166647
  1
付属品
 41
0.7
 11
-144.84213594776941
 21
380.98566451482941
 31
0.0
 73
     3
  0
TEXT
  5
1F8
  8
SPEC
 62
     7
 10
-47.49257429996959
 20
386.10739732175011
 30
0.0
 40
5.7009440104166647
  1
約78g(ケーブル含む)
 41
0.7
 11
-47.49257429996959
 21
391.80834133216678
 31
0.0
 73
     3
  0
TEXT
  5
1F9
  8
SPEC
 62
     7
 10
-47.91792387991709
 20
364.00695572097061
 30
0.0
 40
5.7009440104166647
  1
ラバープレート、接着剤、ウインドスクリーン(W44）、マイクポーチ
 41
0.7
 11
-47.91792387991709
 21
369.70789973138727
 31
0.0
 73
     3
  0
LINE
  5
1FA
  8
SPEC
  6
CONTINUOUS
 62
     7
 10
295.0
 20
507.06362999999988
 30
0.0
 11
295.0
 21
360.81362999999988
 31
0.0
  0
TEXT
  5
1FB
  8
DIMNSIONS
 62
     7
 10
40.0
 20
-206.12790000000001
 30
0.0
 40
7.3297851562499989
  1
(単位：mm)
 41
0.7
 11
40.0
 21
-198.79811484375
 31
0.0
 73
     3
  0
LINE
  5
1FC
  8
DIMNSIONS
  6
CONTINUOUS
 62
     7
 10
113.493572197189
 20
-123.7101479406595
 30
0.0
 11
113.493572197189
 21
-107.0
 31
0.0
  0
TEXT
  5
1FD
  8
DIMNSIONS
 62
     7
 10
23.833008145766339
 20
-110.0183333333333
 30
0.0
 40
8.1442057291666661
  1
1500
 41
0.7
 11
23.833008145766339
 21
-101.8741276041666
 31
0.0
 73
     3
  0
LINE
  5
1FE
  8
DIMNSIONS
  6
CONTINUOUS
 62
     7
 10
-25.815000000656241
 20
-5.3499999999999934
 30
0.0
 11
-2.6218144534630019
 21
-5.3499999999999934
 31
0.0
  0
LINE
  5
1FF
  8
DIMNSIONS
  6
CONTINUOUS
 62
     7
 10
-75.495000000292933
 20
4.25
 30
0.0
 11
-75.495000000292933
 21
-74.75
 31
0.0
  0
LINE
  5
200
  8
DIMNSIONS
  6
CONTINUOUS
 62
     7
 10
-28.495000000292929
 20
2.2750000002999959
 30
0.0
 11
-28.495000000292929
 21
-74.75
 31
0.0
  0
LINE
  5
201
  8
DIMNSIONS
  6
CONTINUOUS
 62
     7
 10
-75.495000000292933
 20
-68.75
 30
0.0
 11
-28.495000000292929
 21
-68.75
 31
0.0
  0
LINE
  5
202
  8
DIMNSIONS
  6
CONTINUOUS
 62
     7
 10
-75.495000000292933
 20
-68.75
 30
0.0
 11
-67.993132324511677
 21
-66.73988061454925
 31
0.0
  0
LINE
  5
203
  8
DIMNSIONS
  6
CONTINUOUS
 62
     7
 10
-75.495000000292933
 20
-68.75
 30
0.0
 11
-67.993132324511677
 21
-70.760119385450736
 31
0.0
  0
LINE
  5
204
  8
DIMNSIONS
  6
CONTINUOUS
 62
     7
 10
-28.495000000292929
 20
-68.75
 30
0.0
 11
-35.996867676074189
 21
-70.760119385450736
 31
0.0
  0
LINE
  5
205
  8
DIMNSIONS
  6
CONTINUOUS
 62
     7
 10
-28.495000000292929
 20
-68.75
 30
0.0
 11
-35.996867676074189
 21
-66.73988061454925
 31
0.0
  0
TEXT
  5
206
  8
DIMNSIONS
 62
     7
 10
-57.28666666695959
 20
-65.768333333333331
 30
0.0
 40
8.1442057291666661
  1
47
 41
0.7
 11
-57.28666666695959
 21
-57.624127604166652
 31
0.0
 73
     3
  0
LINE
  5
207
  8
DIMNSIONS
  6
CONTINUOUS
 62
     7
 10
-68.895000000292924
 20
-18.750000000000139
 30
0.0
 11
-118.5
 21
-18.750000000000139
 31
0.0
  0
LINE
  5
208
  8
DIMNSIONS
  6
CONTINUOUS
 62
     7
 10
-43.500000000292921
 20
216.25
 30
0.0
 11
-118.5
 21
216.25
 31
0.0
  0
LINE
  5
209
  8
DIMNSIONS
  6
CONTINUOUS
 62
     7
 10
-112.5
 20
-18.750000000000139
 30
0.0
 11
-112.5
 21
216.25
 31
0.0
  0
LINE
  5
20A
  8
DIMNSIONS
  6
CONTINUOUS
 62
     7
 10
-112.5
 20
-18.750000000000139
 30
0.0
 11
-114.51011938545069
 21
-11.248132324218879
 31
0.0
  0
LINE
  5
20B
  8
DIMNSIONS
  6
CONTINUOUS
 62
     7
 10
-112.5
 20
-18.750000000000139
 30
0.0
 11
-110.48988061454919
 21
-11.248132324218879
 31
0.0
  0
LINE
  5
20C
  8
DIMNSIONS
  6
CONTINUOUS
 62
     7
 10
-112.5
 20
216.25
 30
0.0
 11
-110.48988061454919
 21
208.7481323242188
 31
0.0
  0
LINE
  5
20D
  8
DIMNSIONS
  6
CONTINUOUS
 62
     7
 10
-112.5
 20
216.25
 30
0.0
 11
-114.51011938545069
 21
208.7481323242188
 31
0.0
  0
TEXT
  5
20E
  8
DIMNSIONS
 62
     7
 10
-115.4816666666666
 20
90.812499999999943
 30
0.0
 40
8.1442057291666661
  1
235
 50
90.0
 41
0.7
 11
-123.6258723958333
 21
90.812499999999943
 31
0.0
 73
     3
  0
LINE
  5
20F
  8
DIMNSIONS
  6
CONTINUOUS
 62
     7
 10
-68.895000000292896
 20
-18.750000000000139
 30
0.0
 11
-99.750000000000014
 21
-18.750000000000139
 31
0.0
  0
LINE
  5
210
  8
DIMNSIONS
  6
CONTINUOUS
 62
     7
 10
-81.495000000292947
 20
21.249999999999979
 30
0.0
 11
-99.750000000000014
 21
21.249999999999979
 31
0.0
  0
LINE
  5
211
  8
DIMNSIONS
  6
CONTINUOUS
 62
     7
 10
-93.75
 20
-18.750000000000139
 30
0.0
 11
-93.75
 21
21.249999999999979
 31
0.0
  0
LINE
  5
212
  8
DIMNSIONS
  6
CONTINUOUS
 62
     7
 10
-93.75
 20
-18.750000000000139
 30
0.0
 11
-95.760119385450764
 21
-11.248132324218879
 31
0.0
  0
LINE
  5
213
  8
DIMNSIONS
  6
CONTINUOUS
 62
     7
 10
-93.75
 20
-18.750000000000139
 30
0.0
 11
-91.739880614549264
 21
-11.248132324218879
 31
0.0
  0
LINE
  5
214
  8
DIMNSIONS
  6
CONTINUOUS
 62
     7
 10
-93.75
 20
21.249999999999979
 30
0.0
 11
-91.739880614549264
 21
13.748132324218741
 31
0.0
  0
LINE
  5
215
  8
DIMNSIONS
  6
CONTINUOUS
 62
     7
 10
-93.75
 20
21.249999999999979
 30
0.0
 11
-95.760119385450764
 21
13.748132324218741
 31
0.0
  0
TEXT
  5
216
  8
DIMNSIONS
 62
     7
 10
-96.731666666666655
 20
-4.0416666666667442
 30
0.0
 40
8.1442057291666661
  1
40
 50
90.0
 41
0.7
 11
-104.8758723958333
 21
-4.0416666666667433
 31
0.0
 73
     3
  0
LINE
  5
217
  8
DIMNSIONS
  6
CONTINUOUS
 62
     7
 10
-75.895000000292939
 20
262.49999999971908
 30
0.0
 11
-118.5
 21
262.49999999971908
 31
0.0
  0
LINE
  5
218
  8
DIMNSIONS
  6
CONTINUOUS
 62
     7
 10
-56.295000000292937
 20
287.49999999971902
 30
0.0
 11
-118.5
 21
287.49999999971902
 31
0.0
  0
LINE
  5
219
  8
DIMNSIONS
  6
CONTINUOUS
 62
     7
 10
-112.5
 20
262.49999999971908
 30
0.0
 11
-112.5
 21
287.49999999971902
 31
0.0
  0
LINE
  5
21A
  8
DIMNSIONS
  6
CONTINUOUS
 62
     7
 10
-112.5
 20
262.49999999971908
 30
0.0
 11
-114.51011938545069
 21
270.00186767550031
 31
0.0
  0
LINE
  5
21B
  8
DIMNSIONS
  6
CONTINUOUS
 62
     7
 10
-112.5
 20
262.49999999971908
 30
0.0
 11
-110.48988061454919
 21
270.00186767550031
 31
0.0
  0
LINE
  5
21C
  8
DIMNSIONS
  6
CONTINUOUS
 62
     7
 10
-112.5
 20
287.49999999971902
 30
0.0
 11
-110.48988061454919
 21
279.9981323239378
 31
0.0
  0
LINE
  5
21D
  8
DIMNSIONS
  6
CONTINUOUS
 62
     7
 10
-112.5
 20
287.49999999971902
 30
0.0
 11
-114.51011938545069
 21
279.9981323239378
 31
0.0
  0
TEXT
  5
21E
  8
DIMNSIONS
 62
     7
 10
-115.4816666666666
 20
269.70833333305239
 30
0.0
 40
8.1442057291666661
  1
25
 50
90.0
 41
0.7
 11
-123.6258723958333
 21
269.70833333305239
 31
0.0
 73
     3
  0
LINE
  5
21F
  8
DIMNSIONS
  6
CONTINUOUS
 62
     7
 10
-2.5
 20
-112.5
 30
0.0
 11
113.493572197189
 21
-112.5
 31
0.0
  0
LINE
  5
220
  8
DIMNSIONS
  6
CONTINUOUS
 62
     7
 10
113.493572197189
 20
-112.5
 30
0.0
 11
103.968572197189
 21
-115.05221605790641
 31
0.0
  0
LINE
  5
221
  8
DIMNSIONS
  6
CONTINUOUS
 62
     7
 10
113.493572197189
 20
-112.5
 30
0.0
 11
103.968572197189
 21
-109.94778394209349
 31
0.0
  0
LINE
  5
222
  8
DIMNSIONS
  6
CONTINUOUS
 62
     7
 10
-12.5
 20
-5.3499999999999934
 30
0.0
 11
-12.5
 21
-102.5
 31
0.0
  0
LINE
  5
223
  8
DIMNSIONS
  6
CONTINUOUS
 62
     7
 10
-12.5
 20
-5.3499999999999934
 30
0.0
 11
-9.9477839420935528
 21
-14.875
 31
0.0
  0
LINE
  5
224
  8
DIMNSIONS
  6
CONTINUOUS
 62
     7
 10
-12.5
 20
-5.3499999999999934
 30
0.0
 11
-15.052216057906451
 21
-14.875
 31
0.0
  0
ARC
  5
225
  8
DIMNSIONS
  6
CONTINUOUS
 62
     7
 10
-2.5
 20
-102.5
 30
0.0
 40
10.0
 50
180.0
 51
270.0
  0
TEXT
  5
226
  8
DATA
 62
     7
 10
250.0
 20
-209.5437
 30
0.0
 40
7.3297851562499989
  1
C516ML
 41
0.7
 11
250.0
 21
-202.21391484374999
 31
0.0
 73
     3
  0
TEXT
  5
227
  8
DATA
 62
     7
 10
250.0
 20
-187.7937
 30
0.0
 40
7.3297851562499989
  1
AKG
 41
0.7
 11
250.0
 21
-180.46391484374999
 31
0.0
 73
     3
  0
TEXT
  5
228
  8
DATA
 62
     7
 10
242.5
 20
-197.67484232246551
 30
0.0
 40
4.8865311328124994
  1
コンデンサー型マイクロホン
 41
0.7
 11
242.5
 21
-192.788311189653
 31
0.0
 73
     3
  0
TEXT
  5
229
  8
DATA
 62
     7
 10
-139.99999999999989
 20
-230.22237000000001
 30
0.0
 40
4.8865234374999993
  1
仕様および外観は予告なく変更されることがありますので、ご了承ください。
 41
0.7
 11
-139.99999999999989
 21
-225.3358465625
 31
0.0
 73
     3
  0
LINE
  5
22A
  8
DATA
  6
CONTINUOUS
 62
     7
 10
-47.995000000292933
 20
21.249999999999979
 30
0.0
 11
-47.495000000292933
 21
21.249999999999979
 31
0.0
  0
LINE
  5
22B
  8
DATA
  6
CONTINUOUS
 62
     7
 10
-47.995000000292933
 20
10.25
 30
0.0
 11
-47.495000000292933
 21
10.25
 31
0.0
  0
LINE
  5
22C
  8
DATA
  6
CONTINUOUS
 62
     7
 10
192.99499999966321
 20
31.25
 30
0.0
 11
192.99499999966321
 21
24.25
 31
0.0
  0
LINE
  5
22D
  8
DATA
  6
CONTINUOUS
 62
     7
 10
181.99499999966321
 20
24.25
 30
0.0
 11
181.99499999966321
 21
31.25
 31
0.0
  0
LINE
  5
22E
  8
DATA
  6
CONTINUOUS
 62
     7
 10
192.99499999966321
 20
31.25
 30
0.0
 11
181.99499999966321
 21
31.25
 31
0.0
  0
LINE
  5
22F
  8
DATA
  6
CONTINUOUS
 62
     7
 10
182.76999999966341
 20
21.538153851150931
 30
0.0
 11
182.76999999966341
 21
24.25
 31
0.0
  0
LINE
  5
230
  8
DATA
  6
CONTINUOUS
 62
     7
 10
192.21999999966329
 20
24.25
 30
0.0
 11
192.21999999966329
 21
21.54631132724592
 31
0.0
  0
LINE
  5
231
  8
DATA
  6
CONTINUOUS
 62
     7
 10
181.99499999966321
 20
24.25
 30
0.0
 11
193.00499999966331
 21
24.25
 31
0.0
  0
LINE
  5
232
  8
DATA
  6
CONTINUOUS
 62
     7
 10
184.5449999996633
 20
31.25
 30
0.0
 11
184.5449999996633
 21
159.25
 31
0.0
  0
LINE
  5
233
  8
DATA
  6
CONTINUOUS
 62
     7
 10
190.44499999966331
 20
159.25
 30
0.0
 11
190.44499999966331
 21
31.25
 31
0.0
  0
LINE
  5
234
  8
DATA
  6
CONTINUOUS
 62
     7
 10
191.99499999966321
 20
159.25
 30
0.0
 11
182.99499999966321
 21
159.25
 31
0.0
  0
LINE
  5
235
  8
DATA
  6
CONTINUOUS
 62
     7
 10
192.39499999966341
 20
171.25
 30
0.0
 11
182.5949999996634
 21
171.25
 31
0.0
  0
LINE
  5
236
  8
DATA
  6
CONTINUOUS
 62
     7
 10
182.99499999966321
 20
159.25
 30
0.0
 11
182.5949999996634
 21
171.25
 31
0.0
  0
LINE
  5
237
  8
DATA
  6
CONTINUOUS
 62
     7
 10
191.99499999966321
 20
159.25
 30
0.0
 11
192.39499999966341
 21
171.25
 31
0.0
  0
LINE
  5
238
  8
DATA
  6
CONTINUOUS
 62
     7
 10
192.39499999966341
 20
189.25
 30
0.0
 11
182.5949999996634
 21
189.25
 31
0.0
  0
LINE
  5
239
  8
DATA
  6
CONTINUOUS
 62
     7
 10
182.5949999996634
 20
171.25
 30
0.0
 11
182.5949999996634
 21
201.45402420284711
 31
0.0
  0
LINE
  5
23A
  8
DATA
  6
CONTINUOUS
 62
     7
 10
192.39499999966341
 20
171.25
 30
0.0
 11
192.39499999966341
 21
200.29088705656261
 31
0.0
  0
LINE
  5
23B
  8
DATA
  6
CONTINUOUS
 62
     7
 10
184.5449999996633
 20
86.0
 30
0.0
 11
190.44499999966331
 21
86.950000000000017
 31
0.0
  0
LINE
  5
23C
  8
DATA
  6
CONTINUOUS
 62
     7
 10
184.5449999996633
 20
88.0
 30
0.0
 11
190.44499999966331
 21
88.950000000000017
 31
0.0
  0
LINE
  5
23D
  8
DATA
  6
CONTINUOUS
 62
     7
 10
184.5449999996633
 20
90.0
 30
0.0
 11
190.44499999966331
 21
90.950000000000003
 31
0.0
  0
LINE
  5
23E
  8
DATA
  6
CONTINUOUS
 62
     7
 10
184.5449999996633
 20
92.0
 30
0.0
 11
190.44499999966331
 21
92.949999999999989
 31
0.0
  0
LINE
  5
23F
  8
DATA
  6
CONTINUOUS
 62
     7
 10
184.5449999996633
 20
94.0
 30
0.0
 11
190.44499999966331
 21
94.950000000000003
 31
0.0
  0
LINE
  5
240
  8
DATA
  6
CONTINUOUS
 62
     7
 10
184.5449999996633
 20
96.0
 30
0.0
 11
190.44499999966331
 21
96.950000000000003
 31
0.0
  0
LINE
  5
241
  8
DATA
  6
CONTINUOUS
 62
     7
 10
184.5449999996633
 20
98.0
 30
0.0
 11
190.44499999966331
 21
98.950000000000017
 31
0.0
  0
LINE
  5
242
  8
DATA
  6
CONTINUOUS
 62
     7
 10
184.5449999996633
 20
100.0
 30
0.0
 11
190.44499999966331
 21
100.95
 31
0.0
  0
LINE
  5
243
  8
DATA
  6
CONTINUOUS
 62
     7
 10
184.5449999996633
 20
102.0
 30
0.0
 11
190.44499999966331
 21
102.95
 31
0.0
  0
LINE
  5
244
  8
DATA
  6
CONTINUOUS
 62
     7
 10
184.5449999996633
 20
104.0
 30
0.0
 11
190.44499999966331
 21
104.95
 31
0.0
  0
LINE
  5
245
  8
DATA
  6
CONTINUOUS
 62
     7
 10
184.5449999996633
 20
106.0
 30
0.0
 11
190.44499999966331
 21
106.95
 31
0.0
  0
LINE
  5
246
  8
DATA
  6
CONTINUOUS
 62
     7
 10
184.5449999996633
 20
108.0
 30
0.0
 11
190.44499999966331
 21
108.95
 31
0.0
  0
LINE
  5
247
  8
DATA
  6
CONTINUOUS
 62
     7
 10
184.5449999996633
 20
110.0
 30
0.0
 11
190.44499999966331
 21
110.95
 31
0.0
  0
LINE
  5
248
  8
DATA
  6
CONTINUOUS
 62
     7
 10
184.5449999996633
 20
112.0
 30
0.0
 11
190.44499999966331
 21
112.95
 31
0.0
  0
LINE
  5
249
  8
DATA
  6
CONTINUOUS
 62
     7
 10
184.5449999996633
 20
114.0
 30
0.0
 11
190.44499999966331
 21
114.95
 31
0.0
  0
LINE
  5
24A
  8
DATA
  6
CONTINUOUS
 62
     7
 10
184.5449999996633
 20
116.0
 30
0.0
 11
190.44499999966331
 21
116.95
 31
0.0
  0
LINE
  5
24B
  8
DATA
  6
CONTINUOUS
 62
     7
 10
184.5449999996633
 20
118.0
 30
0.0
 11
190.44499999966331
 21
118.95
 31
0.0
  0
LINE
  5
24C
  8
DATA
  6
CONTINUOUS
 62
     7
 10
184.5449999996633
 20
120.0
 30
0.0
 11
190.44499999966331
 21
120.95
 31
0.0
  0
LINE
  5
24D
  8
DATA
  6
CONTINUOUS
 62
     7
 10
184.5449999996633
 20
122.0
 30
0.0
 11
190.44499999966331
 21
122.95
 31
0.0
  0
LINE
  5
24E
  8
DATA
  6
CONTINUOUS
 62
     7
 10
184.5449999996633
 20
124.0
 30
0.0
 11
190.44499999966331
 21
124.95
 31
0.0
  0
LINE
  5
24F
  8
DATA
  6
CONTINUOUS
 62
     7
 10
184.5449999996633
 20
126.0
 30
0.0
 11
190.44499999966331
 21
126.95
 31
0.0
  0
LINE
  5
250
  8
DATA
  6
CONTINUOUS
 62
     7
 10
184.5449999996633
 20
128.0
 30
0.0
 11
190.44499999966331
 21
128.94999999999999
 31
0.0
  0
LINE
  5
251
  8
DATA
  6
CONTINUOUS
 62
     7
 10
184.5449999996633
 20
130.0
 30
0.0
 11
190.44499999966331
 21
130.94999999999999
 31
0.0
  0
LINE
  5
252
  8
DATA
  6
CONTINUOUS
 62
     7
 10
184.5449999996633
 20
132.0
 30
0.0
 11
190.44499999966331
 21
132.94999999999999
 31
0.0
  0
LINE
  5
253
  8
DATA
  6
CONTINUOUS
 62
     7
 10
184.5449999996633
 20
134.0
 30
0.0
 11
190.44499999966331
 21
134.94999999999999
 31
0.0
  0
LINE
  5
254
  8
DATA
  6
CONTINUOUS
 62
     7
 10
180.49499999966321
 20
-4.75
 30
0.0
 11
180.49499999966321
 21
7.25
 31
0.0
  0
LINE
  5
255
  8
DATA
  6
CONTINUOUS
 62
     7
 10
194.49499999966321
 20
7.25
 30
0.0
 11
194.49499999966321
 21
-4.75
 31
0.0
  0
LINE
  5
256
  8
DATA
  6
CONTINUOUS
 62
     7
 10
193.29499999966319
 20
-5.75
 30
0.0
 11
181.69499999966331
 21
-5.75
 31
0.0
  0
LINE
  5
257
  8
DATA
  6
CONTINUOUS
 62
     7
 10
193.29499999966319
 20
-4.75
 30
0.0
 11
193.29499999966319
 21
-5.75
 31
0.0
  0
LINE
  5
258
  8
DATA
  6
CONTINUOUS
 62
     7
 10
181.69499999966331
 20
-5.75
 30
0.0
 11
181.69499999966331
 21
-4.75
 31
0.0
  0
LINE
  5
259
  8
DATA
  6
CONTINUOUS
 62
     7
 10
180.49499999966321
 20
-4.75
 30
0.0
 11
194.49499999966321
 21
-4.75
 31
0.0
  0
LINE
  5
25A
  8
DATA
  6
CONTINUOUS
 62
     7
 10
194.49499999966321
 20
7.25
 30
0.0
 11
180.49499999966321
 21
7.25
 31
0.0
  0
LINE
  5
25B
  8
DATA
  6
CONTINUOUS
 62
     7
 10
180.99499999966321
 20
7.25
 30
0.0
 11
180.99499999966321
 21
12.06752800427058
 31
0.0
  0
LINE
  5
25C
  8
DATA
  6
CONTINUOUS
 62
     7
 10
193.99499999966329
 20
12.04991892031526
 30
0.0
 11
193.99499999966329
 21
7.25
 31
0.0
  0
CIRCLE
  5
25D
  8
DATA
  6
CONTINUOUS
 62
     7
 10
187.4999999995448
 20
15.750000000300011
 30
0.0
 40
7.4749999999999091
  0
CIRCLE
  5
25E
  8
DATA
  6
CONTINUOUS
 62
     7
 10
187.4999999995448
 20
15.750000000300011
 30
0.0
 40
6.6000000000000076
  0
LINE
  5
25F
  8
DATA
  6
CONTINUOUS
 62
     7
 10
-32.000000000292928
 20
31.25
 30
0.0
 11
-32.000000000292928
 21
24.25
 31
0.0
  0
LINE
  5
260
  8
DATA
  6
CONTINUOUS
 62
     7
 10
-43.000000000292921
 20
24.25
 30
0.0
 11
-43.000000000292921
 21
31.25
 31
0.0
  0
LINE
  5
261
  8
DATA
  6
CONTINUOUS
 62
     7
 10
-32.000000000292928
 20
31.25
 30
0.0
 11
-43.000000000292921
 21
31.25
 31
0.0
  0
LINE
  5
262
  8
DATA
  6
CONTINUOUS
 62
     7
 10
-42.225000000292937
 20
23.22500000030001
 30
0.0
 11
-42.225000000292937
 21
24.25
 31
0.0
  0
LINE
  5
263
  8
DATA
  6
CONTINUOUS
 62
     7
 10
-32.775000000292962
 20
24.25
 30
0.0
 11
-32.775000000292962
 21
23.22500000030001
 31
0.0
  0
LINE
  5
264
  8
DATA
  6
CONTINUOUS
 62
     7
 10
-43.000000000292921
 20
24.25
 30
0.0
 11
-31.990000000292941
 21
24.25
 31
0.0
  0
LINE
  5
265
  8
DATA
  6
CONTINUOUS
 62
     7
 10
-40.450000000292917
 20
31.25
 30
0.0
 11
-40.450000000292917
 21
159.25
 31
0.0
  0
LINE
  5
266
  8
DATA
  6
CONTINUOUS
 62
     7
 10
-34.55000000029294
 20
159.25
 30
0.0
 11
-34.55000000029294
 21
31.25
 31
0.0
  0
LINE
  5
267
  8
DATA
  6
CONTINUOUS
 62
     7
 10
-33.000000000292928
 20
159.25
 30
0.0
 11
-42.000000000292928
 21
159.25
 31
0.0
  0
LINE
  5
268
  8
DATA
  6
CONTINUOUS
 62
     7
 10
-32.600000000292951
 20
171.25
 30
0.0
 11
-42.400000000292962
 21
171.25
 31
0.0
  0
LINE
  5
269
  8
DATA
  6
CONTINUOUS
 62
     7
 10
-42.000000000292928
 20
159.25
 30
0.0
 11
-42.400000000292962
 21
171.25
 31
0.0
  0
LINE
  5
26A
  8
DATA
  6
CONTINUOUS
 62
     7
 10
-33.000000000292928
 20
159.25
 30
0.0
 11
-32.600000000292951
 21
171.25
 31
0.0
  0
LINE
  5
26B
  8
DATA
  6
CONTINUOUS
 62
     7
 10
-32.600000000292951
 20
189.25
 30
0.0
 11
-42.400000000292962
 21
189.25
 31
0.0
  0
LINE
  5
26C
  8
DATA
  6
CONTINUOUS
 62
     7
 10
-42.400000000292962
 20
171.25
 30
0.0
 11
-42.400000000292962
 21
201.9262352984951
 31
0.0
  0
LINE
  5
26D
  8
DATA
  6
CONTINUOUS
 62
     7
 10
-32.600000000292951
 20
171.25
 30
0.0
 11
-32.600000000292951
 21
201.9262352984951
 31
0.0
  0
CIRCLE
  5
26E
  8
DATA
  6
CONTINUOUS
 62
     7
 10
-37.500000000292928
 20
208.25
 30
0.0
 40
8.0
  0
CIRCLE
  5
26F
  8
DATA
  6
CONTINUOUS
 62
     7
 10
-37.500000000292928
 20
208.25
 30
0.0
 40
3.9499999999999882
  0
CIRCLE
  5
270
  8
DATA
  6
CONTINUOUS
 62
     7
 10
-37.500000000292928
 20
208.25
 30
0.0
 40
5.849999999999965
  0
LINE
  5
271
  8
DATA
  6
CONTINUOUS
 62
     7
 10
-39.450000000292917
 20
213.76543289325511
 30
0.0
 11
-39.450000000292917
 21
216.00870478881629
 31
0.0
  0
LINE
  5
272
  8
DATA
  6
CONTINUOUS
 62
     7
 10
-35.55000000029294
 20
213.76543289325511
 30
0.0
 11
-35.55000000029294
 21
216.00870478881629
 31
0.0
  0
LINE
  5
273
  8
DATA
  6
CONTINUOUS
 62
     7
 10
-33.698495001865943
 20
212.69646598400701
 30
0.0
 11
-31.7557645527137
 21
213.81810193178799
 31
0.0
  0
LINE
  5
274
  8
DATA
  6
CONTINUOUS
 62
     7
 10
-31.748495001865219
 20
209.31896690924819
 30
0.0
 11
-29.805764552713431
 21
210.44060285702889
 31
0.0
  0
LINE
  5
275
  8
DATA
  6
CONTINUOUS
 62
     7
 10
-41.301504998720723
 20
212.69646598400749
 30
0.0
 11
-43.244235447871581
 21
213.8181019317876
 31
0.0
  0
LINE
  5
276
  8
DATA
  6
CONTINUOUS
 62
     7
 10
-43.251504998719902
 20
209.31896690924771
 30
0.0
 11
-45.194235447870952
 21
210.44060285702801
 31
0.0
  0
LINE
  5
277
  8
DATA
  6
CONTINUOUS
 62
     7
 10
-43.251504998719902
 20
207.18103309075221
 30
0.0
 11
-45.194235447872202
 21
206.05939714297131
 31
0.0
  0
LINE
  5
278
  8
DATA
  6
CONTINUOUS
 62
     7
 10
-41.301504998720723
 20
203.80353401599251
 30
0.0
 11
-43.244235447872562
 21
202.68189806821181
 31
0.0
  0
LINE
  5
279
  8
DATA
  6
CONTINUOUS
 62
     7
 10
-39.450000000292917
 20
200.49129521118371
 30
0.0
 11
-39.450000000292917
 21
202.73456710674489
 31
0.0
  0
LINE
  5
27A
  8
DATA
  6
CONTINUOUS
 62
     7
 10
-35.55000000029294
 20
200.49129521118371
 30
0.0
 11
-35.55000000029294
 21
202.73456710674489
 31
0.0
  0
LINE
  5
27B
  8
DATA
  6
CONTINUOUS
 62
     7
 10
-31.75576455271484
 20
202.68189806821269
 30
0.0
 11
-33.698495001865879
 21
203.80353401599291
 31
0.0
  0
LINE
  5
27C
  8
DATA
  6
CONTINUOUS
 62
     7
 10
-29.80576455271428
 20
206.05939714297159
 30
0.0
 11
-31.748495001865219
 21
207.1810330907517
 31
0.0
  0
LINE
  5
27D
  8
DATA
  6
CONTINUOUS
 62
     7
 10
-40.450000000292917
 20
86.0
 30
0.0
 11
-34.55000000029294
 21
86.950000000000017
 31
0.0
  0
LINE
  5
27E
  8
DATA
  6
CONTINUOUS
 62
     7
 10
-40.450000000292917
 20
88.0
 30
0.0
 11
-34.55000000029294
 21
88.950000000000017
 31
0.0
  0
LINE
  5
27F
  8
DATA
  6
CONTINUOUS
 62
     7
 10
-40.450000000292917
 20
90.0
 30
0.0
 11
-34.55000000029294
 21
90.950000000000003
 31
0.0
  0
LINE
  5
280
  8
DATA
  6
CONTINUOUS
 62
     7
 10
-40.450000000292917
 20
92.0
 30
0.0
 11
-34.55000000029294
 21
92.949999999999989
 31
0.0
  0
LINE
  5
281
  8
DATA
  6
CONTINUOUS
 62
     7
 10
-40.450000000292917
 20
94.0
 30
0.0
 11
-34.55000000029294
 21
94.950000000000003
 31
0.0
  0
LINE
  5
282
  8
DATA
  6
CONTINUOUS
 62
     7
 10
-40.450000000292917
 20
96.0
 30
0.0
 11
-34.55000000029294
 21
96.950000000000003
 31
0.0
  0
LINE
  5
283
  8
DATA
  6
CONTINUOUS
 62
     7
 10
-40.450000000292917
 20
98.0
 30
0.0
 11
-34.55000000029294
 21
98.950000000000017
 31
0.0
  0
LINE
  5
284
  8
DATA
  6
CONTINUOUS
 62
     7
 10
-40.450000000292917
 20
100.0
 30
0.0
 11
-34.55000000029294
 21
100.95
 31
0.0
  0
LINE
  5
285
  8
DATA
  6
CONTINUOUS
 62
     7
 10
-40.450000000292917
 20
102.0
 30
0.0
 11
-34.55000000029294
 21
102.95
 31
0.0
  0
LINE
  5
286
  8
DATA
  6
CONTINUOUS
 62
     7
 10
-40.450000000292917
 20
104.0
 30
0.0
 11
-34.55000000029294
 21
104.95
 31
0.0
  0
LINE
  5
287
  8
DATA
  6
CONTINUOUS
 62
     7
 10
-40.450000000292917
 20
106.0
 30
0.0
 11
-34.55000000029294
 21
106.95
 31
0.0
  0
LINE
  5
288
  8
DATA
  6
CONTINUOUS
 62
     7
 10
-40.450000000292917
 20
108.0
 30
0.0
 11
-34.55000000029294
 21
108.95
 31
0.0
  0
LINE
  5
289
  8
DATA
  6
CONTINUOUS
 62
     7
 10
-40.450000000292917
 20
110.0
 30
0.0
 11
-34.55000000029294
 21
110.95
 31
0.0
  0
LINE
  5
28A
  8
DATA
  6
CONTINUOUS
 62
     7
 10
-40.450000000292917
 20
112.0
 30
0.0
 11
-34.55000000029294
 21
112.95
 31
0.0
  0
LINE
  5
28B
  8
DATA
  6
CONTINUOUS
 62
     7
 10
-40.450000000292917
 20
114.0
 30
0.0
 11
-34.55000000029294
 21
114.95
 31
0.0
  0
LINE
  5
28C
  8
DATA
  6
CONTINUOUS
 62
     7
 10
-40.450000000292917
 20
116.0
 30
0.0
 11
-34.55000000029294
 21
116.95
 31
0.0
  0
LINE
  5
28D
  8
DATA
  6
CONTINUOUS
 62
     7
 10
-40.450000000292917
 20
118.0
 30
0.0
 11
-34.55000000029294
 21
118.95
 31
0.0
  0
LINE
  5
28E
  8
DATA
  6
CONTINUOUS
 62
     7
 10
-40.450000000292917
 20
120.0
 30
0.0
 11
-34.55000000029294
 21
120.95
 31
0.0
  0
LINE
  5
28F
  8
DATA
  6
CONTINUOUS
 62
     7
 10
-40.450000000292917
 20
122.0
 30
0.0
 11
-34.55000000029294
 21
122.95
 31
0.0
  0
LINE
  5
290
  8
DATA
  6
CONTINUOUS
 62
     7
 10
-40.450000000292917
 20
124.0
 30
0.0
 11
-34.55000000029294
 21
124.95
 31
0.0
  0
LINE
  5
291
  8
DATA
  6
CONTINUOUS
 62
     7
 10
-40.450000000292917
 20
126.0
 30
0.0
 11
-34.55000000029294
 21
126.95
 31
0.0
  0
LINE
  5
292
  8
DATA
  6
CONTINUOUS
 62
     7
 10
-40.450000000292917
 20
128.0
 30
0.0
 11
-34.55000000029294
 21
128.94999999999999
 31
0.0
  0
LINE
  5
293
  8
DATA
  6
CONTINUOUS
 62
     7
 10
-40.450000000292917
 20
130.0
 30
0.0
 11
-34.55000000029294
 21
130.94999999999999
 31
0.0
  0
LINE
  5
294
  8
DATA
  6
CONTINUOUS
 62
     7
 10
-40.450000000292917
 20
132.0
 30
0.0
 11
-34.55000000029294
 21
132.94999999999999
 31
0.0
  0
LINE
  5
295
  8
DATA
  6
CONTINUOUS
 62
     7
 10
-40.450000000292917
 20
134.0
 30
0.0
 11
-34.55000000029294
 21
134.94999999999999
 31
0.0
  0
LINE
  5
296
  8
DATA
  6
CONTINUOUS
 62
     7
 10
-44.500000000292928
 20
-4.75
 30
0.0
 11
-44.500000000292928
 21
7.25
 31
0.0
  0
LINE
  5
297
  8
DATA
  6
CONTINUOUS
 62
     7
 10
-30.500000000292928
 20
7.25
 30
0.0
 11
-30.500000000292928
 21
-4.75
 31
0.0
  0
LINE
  5
298
  8
DATA
  6
CONTINUOUS
 62
     7
 10
-30.500000000292928
 20
7.25
 30
0.0
 11
-44.500000000292928
 21
7.25
 31
0.0
  0
LINE
  5
299
  8
DATA
  6
CONTINUOUS
 62
     7
 10
-44.000000000292928
 20
7.25
 30
0.0
 11
-44.000000000292928
 21
8.2750000002999968
 31
0.0
  0
LINE
  5
29A
  8
DATA
  6
CONTINUOUS
 62
     7
 10
-31.000000000292928
 20
8.2750000002999968
 30
0.0
 11
-31.000000000292928
 21
7.25
 31
0.0
  0
LINE
  5
29B
  8
DATA
  6
CONTINUOUS
 62
     7
 10
-28.495000000292929
 20
23.22500000030001
 30
0.0
 11
-32.775000000292962
 21
23.22500000030001
 31
0.0
  0
LINE
  5
29C
  8
DATA
  6
CONTINUOUS
 62
     7
 10
-42.225000000292937
 20
23.22500000030001
 30
0.0
 11
-47.495000000292933
 21
23.22500000030001
 31
0.0
  0
LINE
  5
29D
  8
DATA
  6
CONTINUOUS
 62
     7
 10
-47.995000000292933
 20
23.22500000030001
 30
0.0
 11
-50.295000000292937
 21
23.22500000030001
 31
0.0
  0
LINE
  5
29E
  8
DATA
  6
CONTINUOUS
 62
     7
 10
-28.495000000292929
 20
8.2750000002999968
 30
0.0
 11
-31.000000000293038
 21
8.2750000002999968
 31
0.0
  0
LINE
  5
29F
  8
DATA
  6
CONTINUOUS
 62
     7
 10
-44.000000000292857
 20
8.2750000002999968
 30
0.0
 11
-47.495000000292933
 21
8.2750000002999968
 31
0.0
  0
LINE
  5
2A0
  8
DATA
  6
CONTINUOUS
 62
     7
 10
-47.995000000292933
 20
8.2750000002999968
 30
0.0
 11
-50.295000000292937
 21
8.2750000002999968
 31
0.0
  0
LINE
  5
2A1
  8
DATA
  6
CONTINUOUS
 62
     7
 10
-28.495000000292929
 20
8.2750000002999968
 30
0.0
 11
-28.495000000292929
 21
23.22500000030001
 31
0.0
  0
LINE
  5
2A2
  8
DATA
  6
CONTINUOUS
 62
     7
 10
-47.495000000292933
 20
8.2750000002999968
 30
0.0
 11
-47.495000000292933
 21
23.22500000030001
 31
0.0
  0
LINE
  5
2A3
  8
DATA
  6
CONTINUOUS
 62
     7
 10
-47.995000000292933
 20
8.2750000002999968
 30
0.0
 11
-47.995000000292933
 21
23.22500000030001
 31
0.0
  0
LINE
  5
2A4
  8
DATA
  6
CONTINUOUS
 62
     7
 10
-50.295000000292937
 20
8.2750000002999968
 30
0.0
 11
-50.295000000292937
 21
23.22500000030001
 31
0.0
  0
ARC
  5
2A5
  8
DATA
  6
CONTINUOUS
 62
     7
 10
-37.500000000292928
 20
35.544985714585607
 30
0.0
 40
13.19498666161514
 50
249.01702376229349
 51
290.98297623770611
  0
ARC
  5
2A6
  8
DATA
  6
CONTINUOUS
 62
     7
 10
-37.500000000292928
 20
0.3514838712676465
 30
0.0
 40
10.24851734872102
 50
50.636502589069778
 51
129.36349741093019
  0
LINE
  5
2A7
  8
DATA
  6
CONTINUOUS
 62
     7
 10
194.39499999966341
 20
198.00000000029999
 30
0.0
 11
194.39499999966341
 21
216.25
 31
0.0
  0
LINE
  5
2A8
  8
DATA
  6
CONTINUOUS
 62
     7
 10
176.24499999966321
 20
204.74300010367509
 30
0.0
 11
176.24499999966321
 21
211.75699989632491
 31
0.0
  0
ARC
  5
2A9
  8
DATA
  6
CONTINUOUS
 62
     7
 10
187.51695933091131
 20
195.64104949735801
 30
0.0
 40
20.019411788534988
 50
102.96643352930241
 51
123.01534812579141
  0
ARC
  5
2AA
  8
DATA
  6
CONTINUOUS
 62
     7
 10
194.66396971752539
 20
154.1576039007015
 30
0.0
 40
62.092978653478283
 50
90.24819034582201
 51
100.8036690096267
  0
ARC
  5
2AB
  8
DATA
  6
CONTINUOUS
 62
     7
 10
187.51695933091131
 20
220.8589505026421
 30
0.0
 40
20.019411788534988
 50
236.98465187420859
 51
257.03356647069751
  0
ARC
  5
2AC
  8
DATA
  6
CONTINUOUS
 62
     7
 10
194.66396971752539
 20
262.34239609929853
 30
0.0
 40
62.092978653478262
 50
259.19633099037333
 51
269.75180965417798
  0
ARC
  5
2AD
  8
DATA
  6
CONTINUOUS
 62
     7
 10
177.0449999996633
 20
211.75699989632491
 30
0.0
 40
0.8000000000000063
 50
123.0153481257943
 51
180.0
  0
ARC
  5
2AE
  8
DATA
  6
CONTINUOUS
 62
     7
 10
177.0449999996633
 20
204.74300010367509
 30
0.0
 40
0.8000000000000682
 50
180.0
 51
236.9846518742057
  0
LINE
  5
2AF
  8
DATA
  6
CONTINUOUS
 62
     7
 10
194.39499999966341
 20
198.00000000029999
 30
0.0
 11
192.39499999966341
 21
198.00000000029999
 31
0.0
  0
LINE
  5
2B0
  8
DATA
  6
CONTINUOUS
 62
     7
 10
189.39499999966341
 20
210.70000000030001
 30
0.0
 11
189.39499999966341
 21
213.8000000003
 31
0.0
  0
LINE
  5
2B1
  8
DATA
  6
CONTINUOUS
 62
     7
 10
178.44499999966331
 20
210.35000000030001
 30
0.0
 11
178.44499999966331
 21
211.75699989632491
 31
0.0
  0
ARC
  5
2B2
  8
DATA
  6
CONTINUOUS
 62
     7
 10
190.25517760219131
 20
178.82343816798951
 30
0.0
 40
34.987137395296067
 50
91.408789523051695
 51
109.7281455848637
  0
ARC
  5
2B3
  8
DATA
  6
CONTINUOUS
 62
     7
 10
180.55999999971331
 20
315.64499999873738
 30
0.0
 40
105.3162392495627
 50
268.849287427999
 51
274.81220986805192
  0
LINE
  5
2B4
  8
DATA
  6
CONTINUOUS
 62
     7
 10
189.39499999966341
 20
205.79999999969999
 30
0.0
 11
189.39499999966341
 21
202.6999999997
 31
0.0
  0
LINE
  5
2B5
  8
DATA
  6
CONTINUOUS
 62
     7
 10
178.44499999966331
 20
206.14999999969999
 30
0.0
 11
178.44499999966331
 21
204.74300010367509
 31
0.0
  0
ARC
  5
2B6
  8
DATA
  6
CONTINUOUS
 62
     7
 10
190.25517760219131
 20
237.67656183201041
 30
0.0
 40
34.987137395296109
 50
250.27185441513629
 51
268.59121047694828
  0
ARC
  5
2B7
  8
DATA
  6
CONTINUOUS
 62
     7
 10
180.55999999971331
 20
100.8550000012625
 30
0.0
 40
105.3162392495628
 50
85.187790131948091
 51
91.150712572000984
  0
LINE
  5
2B8
  8
DATA
  6
CONTINUOUS
 62
     7
 10
-29.495000000443
 20
285.89904752264061
 30
0.0
 11
-45.495000000442928
 21
285.89904752264061
 31
0.0
  0
LINE
  5
2B9
  8
DATA
  6
CONTINUOUS
 62
     7
 10
-33.988000104118058
 20
267.74904752264058
 30
0.0
 11
-41.001999896767892
 21
267.74904752264058
 31
0.0
  0
ARC
  5
2BA
  8
DATA
  6
CONTINUOUS
 62
     7
 10
-24.88604949780089
 20
279.02100685388848
 30
0.0
 40
20.01941178853496
 50
192.96643352930201
 51
213.01534812579101
  0
ARC
  5
2BB
  8
DATA
  6
CONTINUOUS
 62
     7
 10
16.597396098855722
 20
286.16801724050282
 30
0.0
 40
62.092978653478418
 50
180.24819034582211
 51
190.8036690096267
  0
ARC
  5
2BC
  8
DATA
  6
CONTINUOUS
 62
     7
 10
-50.103950503085031
 20
279.02100685388848
 30
0.0
 40
20.01941178853491
 50
326.98465187420879
 51
347.03356647069802
  0
ARC
  5
2BD
  8
DATA
  6
CONTINUOUS
 62
     7
 10
-91.587396099741483
 20
286.16801724050282
 30
0.0
 40
62.092978653478262
 50
349.19633099037321
 51
359.75180965417792
  0
ARC
  5
2BE
  8
DATA
  6
CONTINUOUS
 62
     7
 10
-41.001999896767892
 20
268.54904752264048
 30
0.0
 40
0.7999999999999754
 50
213.01534812579089
 51
270.0
  0
ARC
  5
2BF
  8
DATA
  6
CONTINUOUS
 62
     7
 10
-33.988000104118058
 20
268.54904752264048
 30
0.0
 40
0.7999999999999546
 50
270.0
 51
326.98465187420919
  0
LINE
  5
2C0
  8
DATA
  6
CONTINUOUS
 62
     7
 10
-39.945000000742958
 20
280.8990475226405
 30
0.0
 11
-43.045000000742967
 21
280.8990475226405
 31
0.0
  0
LINE
  5
2C1
  8
DATA
  6
CONTINUOUS
 62
     7
 10
-39.595000000742992
 20
269.9490475226404
 30
0.0
 11
-41.001999896767892
 21
269.9490475226404
 31
0.0
  0
ARC
  5
2C2
  8
DATA
  6
CONTINUOUS
 62
     7
 10
-8.0684381684325217
 20
281.75922512516848
 30
0.0
 40
34.987137395296109
 50
181.40878952305169
 51
199.7281455848636
  0
ARC
  5
2C3
  8
DATA
  6
CONTINUOUS
 62
     7
 10
-144.88999999918039
 20
272.06404752269049
 30
0.0
 40
105.3162392495628
 50
358.84928742799889
 51
4.8122098680518652
  0
LINE
  5
2C4
  8
DATA
  6
CONTINUOUS
 62
     7
 10
-35.045000000142942
 20
280.8990475226405
 30
0.0
 11
-31.945000000142969
 21
280.8990475226405
 31
0.0
  0
LINE
  5
2C5
  8
DATA
  6
CONTINUOUS
 62
     7
 10
-35.395000000142957
 20
269.9490475226404
 30
0.0
 11
-33.988000104118058
 21
269.9490475226404
 31
0.0
  0
ARC
  5
2C6
  8
DATA
  6
CONTINUOUS
 62
     7
 10
-66.921561832453349
 20
281.75922512516848
 30
0.0
 40
34.987137395296067
 50
340.27185441513632
 51
358.59121047694822
  0
ARC
  5
2C7
  8
DATA
  6
CONTINUOUS
 62
     7
 10
69.89999999829476
 20
272.06404752269049
 30
0.0
 40
105.316239249563
 50
175.18779013194811
 51
181.15071257200091
  0
LINE
  5
2C8
  8
DATA
  6
CONTINUOUS
 62
     7
 10
-47.995000000292933
 20
285.52499999941898
 30
0.0
 11
-47.495000000292933
 21
285.52499999941898
 31
0.0
  0
LINE
  5
2C9
  8
DATA
  6
CONTINUOUS
 62
     7
 10
-28.495000000292929
 20
287.49999999971902
 30
0.0
 11
-47.495000000292933
 21
287.49999999971902
 31
0.0
  0
LINE
  5
2CA
  8
DATA
  6
CONTINUOUS
 62
     7
 10
-47.995000000292933
 20
287.49999999971902
 30
0.0
 11
-50.295000000292937
 21
287.49999999971902
 31
0.0
  0
LINE
  5
2CB
  8
DATA
  6
CONTINUOUS
 62
     7
 10
-28.495000000292929
 20
272.54999999971909
 30
0.0
 11
-31.159217233592319
 21
272.54999999971909
 31
0.0
  0
LINE
  5
2CC
  8
DATA
  6
CONTINUOUS
 62
     7
 10
-43.83078276729357
 20
272.54999999971909
 30
0.0
 11
-47.495000000292933
 21
272.54999999971909
 31
0.0
  0
LINE
  5
2CD
  8
DATA
  6
CONTINUOUS
 62
     7
 10
-47.995000000292933
 20
272.54999999971909
 30
0.0
 11
-50.295000000292937
 21
272.54999999971909
 31
0.0
  0
LINE
  5
2CE
  8
DATA
  6
CONTINUOUS
 62
     7
 10
-28.495000000292929
 20
272.54999999971909
 30
0.0
 11
-28.495000000292929
 21
287.49999999971902
 31
0.0
  0
LINE
  5
2CF
  8
DATA
  6
CONTINUOUS
 62
     7
 10
-47.495000000292933
 20
272.54999999971909
 30
0.0
 11
-47.495000000292933
 21
287.49999999971902
 31
0.0
  0
LINE
  5
2D0
  8
DATA
  6
CONTINUOUS
 62
     7
 10
-47.995000000292933
 20
272.54999999971909
 30
0.0
 11
-47.995000000292933
 21
287.49999999971902
 31
0.0
  0
LINE
  5
2D1
  8
DATA
  6
CONTINUOUS
 62
     7
 10
-50.295000000292937
 20
272.54999999971909
 30
0.0
 11
-50.295000000292937
 21
287.49999999971902
 31
0.0
  0
LINE
  5
2D2
  8
DATA
  6
CONTINUOUS
 62
     7
 10
-74.495000000292904
 20
285.52499999941898
 30
0.0
 11
-50.295000000292937
 21
285.52499999941898
 31
0.0
  0
LINE
  5
2D3
  8
DATA
  6
CONTINUOUS
 62
     7
 10
-74.495000000292904
 20
274.5249999998191
 30
0.0
 11
-74.495000000292904
 21
285.52499999941898
 31
0.0
  0
LINE
  5
2D4
  8
DATA
  6
CONTINUOUS
 62
     7
 10
-51.495000000292933
 20
274.5249999998191
 30
0.0
 11
-51.495000000292933
 21
285.52499999941898
 31
0.0
  0
LINE
  5
2D5
  8
DATA
  6
CONTINUOUS
 62
     7
 10
-42.300942039483559
 20
-32.349749999771888
 30
0.0
 11
-43.050942039483559
 21
-19.34982999977149
 31
0.0
  0
LINE
  5
2D6
  8
DATA
  6
CONTINUOUS
 62
     7
 10
-32.81465759646737
 20
-32.349749999771888
 30
0.0
 11
-32.06465759646737
 21
-19.34982999977149
 31
0.0
  0
LINE
  5
2D7
  8
DATA
  6
CONTINUOUS
 62
     7
 10
-42.300942039483559
 20
-32.349749999771888
 30
0.0
 11
-32.81465759646737
 21
-32.349749999771888
 31
0.0
  0
LINE
  5
2D8
  8
DATA
  6
CONTINUOUS
 62
     7
 10
-43.050942039483559
 20
-19.34982999977149
 30
0.0
 11
-43.050942039483559
 21
-12.849779999771499
 31
0.0
  0
LINE
  5
2D9
  8
DATA
  6
CONTINUOUS
 62
     7
 10
-32.06465759646737
 20
-19.34982999977149
 30
0.0
 11
-32.06465759646737
 21
-12.849779999771499
 31
0.0
  0
LINE
  5
2DA
  8
DATA
  6
CONTINUOUS
 62
     7
 10
-43.050942039483559
 20
-12.849779999771499
 30
0.0
 11
-32.06465759646737
 21
-12.849779999771499
 31
0.0
  0
LINE
  5
2DB
  8
DATA
  6
CONTINUOUS
 62
     7
 10
-43.050942039483559
 20
-12.849779999771499
 30
0.0
 11
-43.050942039483559
 21
-5.3499999997712839
 31
0.0
  0
LINE
  5
2DC
  8
DATA
  6
CONTINUOUS
 62
     7
 10
-32.06465759646737
 20
-5.3499999997712839
 30
0.0
 11
-32.06465759646737
 21
-12.849779999771499
 31
0.0
  0
LINE
  5
2DD
  8
DATA
  6
CONTINUOUS
 62
     7
 10
-43.050942039483559
 20
-12.74985999977139
 30
0.0
 11
-32.06465759646737
 21
-12.74985999977139
 31
0.0
  0
LINE
  5
2DE
  8
DATA
  6
CONTINUOUS
 62
     7
 10
-38.250942039483597
 20
-19.34982999977149
 30
0.0
 11
-37.800962039483508
 21
-25.349709999771559
 31
0.0
  0
LINE
  5
2DF
  8
DATA
  6
CONTINUOUS
 62
     7
 10
-37.351042039483488
 20
-19.34982999977149
 30
0.0
 11
-37.800962039483508
 21
-25.349709999771559
 31
0.0
  0
LINE
  5
2E0
  8
DATA
  6
CONTINUOUS
 62
     7
 10
-37.351042039483488
 20
-19.34982999977149
 30
0.0
 11
-38.250942039483597
 21
-19.34982999977149
 31
0.0
  0
LINE
  5
2E1
  8
DATA
  6
CONTINUOUS
 62
     7
 10
-42.25094203948349
 20
-19.34982999977149
 30
0.0
 11
-41.800942039483559
 21
-25.349709999771559
 31
0.0
  0
LINE
  5
2E2
  8
DATA
  6
CONTINUOUS
 62
     7
 10
-41.351042039483481
 20
-19.34982999977149
 30
0.0
 11
-41.800942039483559
 21
-25.349709999771559
 31
0.0
  0
LINE
  5
2E3
  8
DATA
  6
CONTINUOUS
 62
     7
 10
-42.25094203948349
 20
-19.34982999977149
 30
0.0
 11
-41.351042039483481
 21
-19.34982999977149
 31
0.0
  0
LINE
  5
2E4
  8
DATA
  6
CONTINUOUS
 62
     7
 10
-40.25094203948349
 20
-19.34982999977149
 30
0.0
 11
-39.800942039483452
 21
-25.349709999771559
 31
0.0
  0
LINE
  5
2E5
  8
DATA
  6
CONTINUOUS
 62
     7
 10
-39.351042039483488
 20
-19.34982999977149
 30
0.0
 11
-39.800942039483452
 21
-25.349709999771559
 31
0.0
  0
LINE
  5
2E6
  8
DATA
  6
CONTINUOUS
 62
     7
 10
-40.25094203948349
 20
-19.34982999977149
 30
0.0
 11
-39.351042039483488
 21
-19.34982999977149
 31
0.0
  0
LINE
  5
2E7
  8
DATA
  6
CONTINUOUS
 62
     7
 10
-36.250942039483597
 20
-19.34982999977149
 30
0.0
 11
-35.801052039483622
 21
-25.349709999771559
 31
0.0
  0
LINE
  5
2E8
  8
DATA
  6
CONTINUOUS
 62
     7
 10
-35.351042039483602
 20
-19.34982999977149
 30
0.0
 11
-35.801052039483622
 21
-25.349709999771559
 31
0.0
  0
LINE
  5
2E9
  8
DATA
  6
CONTINUOUS
 62
     7
 10
-36.250942039483597
 20
-19.34982999977149
 30
0.0
 11
-35.351042039483602
 21
-19.34982999977149
 31
0.0
  0
LINE
  5
2EA
  8
DATA
  6
CONTINUOUS
 62
     7
 10
-34.250942039483597
 20
-19.34982999977149
 30
0.0
 11
-33.801052039483629
 21
-25.349709999771559
 31
0.0
  0
LINE
  5
2EB
  8
DATA
  6
CONTINUOUS
 62
     7
 10
-33.351062039483551
 20
-19.34982999977149
 30
0.0
 11
-33.801052039483629
 21
-25.349709999771559
 31
0.0
  0
LINE
  5
2EC
  8
DATA
  6
CONTINUOUS
 62
     7
 10
-34.250942039483597
 20
-19.34982999977149
 30
0.0
 11
-33.351062039483551
 21
-19.34982999977149
 31
0.0
  0
LINE
  5
2ED
  8
DATA
  6
CONTINUOUS
 62
     7
 10
-39.800997039483534
 20
-49.349749999772122
 30
0.0
 11
-35.800997039483534
 21
-49.349749999772122
 31
0.0
  0
LINE
  5
2EE
  8
DATA
  6
CONTINUOUS
 62
     7
 10
-40.300997039483534
 20
-32.349749999771888
 30
0.0
 11
-39.800997039483534
 21
-49.349749999772122
 31
0.0
  0
LINE
  5
2EF
  8
DATA
  6
CONTINUOUS
 62
     7
 10
-35.300997039483541
 20
-32.349749999771888
 30
0.0
 11
-35.800997039483534
 21
-49.349749999772122
 31
0.0
  0
LINE
  5
2F0
  8
DATA
  6
CONTINUOUS
 62
     7
 10
-36.800997039483541
 20
-49.349749999772122
 30
0.0
 11
-36.800997039483541
 21
-83.046353641875228
 31
0.0
  0
LINE
  5
2F1
  8
DATA
  6
CONTINUOUS
 62
     7
 10
-38.800997039483534
 20
-49.349749999772122
 30
0.0
 11
-38.800997039483534
 21
-80.493201753693086
 31
0.0
  0
LINE
  5
2F2
  8
DATA
  6
CONTINUOUS
 62
     7
 10
-38.800997039483534
 20
-82.493201753693114
 30
0.0
 11
-38.800997039483534
 21
-85.046353641875243
 31
0.0
  0
ARC
  5
2F3
  8
DATA
  6
CONTINUOUS
 62
     7
 10
13.19712772358289
 20
-82.613317642399849
 30
0.0
 40
50.0
 50
179.5037710933961
 51
180.4962289066043
  0
ARC
  5
2F4
  8
DATA
  6
CONTINUOUS
 62
     7
 10
13.19712772358289
 20
-82.613317642399849
 30
0.0
 40
50.0
 50
182.820848868865
 51
270.0
  0
ARC
  5
2F5
  8
DATA
  6
CONTINUOUS
 62
     7
 10
11.1971277235829
 20
-84.613317642399835
 30
0.0
 40
50.0
 50
180.49622890660419
 51
269.99999999999989
  0
ARC
  5
2F6
  8
DATA
  6
CONTINUOUS
 62
     7
 10
-34.084650713969772
 20
-81.797389844977559
 30
0.0
 40
4.2188935733035331
 50
207.26982744309899
 51
332.7301725569011
  0
ARC
  5
2F7
  8
DATA
  6
CONTINUOUS
 62
     7
 10
-41.584650713969772
 20
-85.66342811838453
 30
0.0
 40
4.2188935733035331
 50
27.269827443099
 51
152.73017255690101
  0
ARC
  5
2F8
  8
DATA
  6
CONTINUOUS
 62
     7
 10
-34.084650713969772
 20
-79.797389844977559
 30
0.0
 40
4.2188935733035331
 50
207.26982744309899
 51
332.7301725569011
  0
ARC
  5
2F9
  8
DATA
  6
CONTINUOUS
 62
     7
 10
-41.584650713969772
 20
-83.66342811838453
 30
0.0
 40
4.2188935733035331
 50
27.269827443099
 51
152.73017255690101
  0
LINE
  5
2FA
  8
DATA
  6
CONTINUOUS
 62
     7
 10
13.19712772358289
 20
-132.61331764239981
 30
0.0
 11
60.993842197188037
 21
-132.61331764239981
 31
0.0
  0
LINE
  5
2FB
  8
DATA
  6
CONTINUOUS
 62
     7
 10
11.1971277235829
 20
-134.61331764239981
 30
0.0
 11
60.993842197188037
 21
-134.61331764239981
 31
0.0
  0
LINE
  5
2FC
  8
DATA
  6
CONTINUOUS
 62
     7
 10
77.993842197188343
 20
-129.21014794065951
 30
0.0
 11
90.993762197188815
 21
-128.46014794065951
 31
0.0
  0
LINE
  5
2FD
  8
DATA
  6
CONTINUOUS
 62
     7
 10
77.993842197188343
 20
-138.6964323836757
 30
0.0
 11
90.993762197188815
 21
-139.4464323836757
 31
0.0
  0
LINE
  5
2FE
  8
DATA
  6
CONTINUOUS
 62
     7
 10
77.993842197188343
 20
-129.21014794065951
 30
0.0
 11
77.993842197188343
 21
-138.6964323836757
 31
0.0
  0
LINE
  5
2FF
  8
DATA
  6
CONTINUOUS
 62
     7
 10
90.993762197188815
 20
-128.46014794065951
 30
0.0
 11
97.493812197188845
 21
-128.46014794065951
 31
0.0
  0
LINE
  5
300
  8
DATA
  6
CONTINUOUS
 62
     7
 10
90.993762197188815
 20
-139.4464323836757
 30
0.0
 11
97.493812197188845
 21
-139.4464323836757
 31
0.0
  0
LINE
  5
301
  8
DATA
  6
CONTINUOUS
 62
     7
 10
97.493812197188845
 20
-128.46014794065951
 30
0.0
 11
97.493812197188845
 21
-139.4464323836757
 31
0.0
  0
LINE
  5
302
  8
DATA
  6
CONTINUOUS
 62
     7
 10
97.493812197188845
 20
-128.46014794065951
 30
0.0
 11
104.993592197189
 21
-128.46014794065951
 31
0.0
  0
LINE
  5
303
  8
DATA
  6
CONTINUOUS
 62
     7
 10
104.993592197189
 20
-139.4464323836757
 30
0.0
 11
97.493812197188845
 21
-139.4464323836757
 31
0.0
  0
LINE
  5
304
  8
DATA
  6
CONTINUOUS
 62
     7
 10
104.993592197189
 20
-128.46014794065951
 30
0.0
 11
104.993592197189
 21
-139.4464323836757
 31
0.0
  0
LINE
  5
305
  8
DATA
  6
CONTINUOUS
 62
     7
 10
104.993592197189
 20
-137.7100379406595
 30
0.0
 11
113.493572197189
 21
-137.7100379406595
 31
0.0
  0
LINE
  5
306
  8
DATA
  6
CONTINUOUS
 62
     7
 10
113.493572197189
 20
-137.7100379406595
 30
0.0
 11
113.493572197189
 21
-129.71014794065951
 31
0.0
  0
LINE
  5
307
  8
DATA
  6
CONTINUOUS
 62
     7
 10
97.593732197188956
 20
-128.46014794065951
 30
0.0
 11
97.593732197188956
 21
-139.4464323836757
 31
0.0
  0
LINE
  5
308
  8
DATA
  6
CONTINUOUS
 62
     7
 10
112.993572197189
 20
-128.67002794065971
 30
0.0
 11
112.993572197189
 21
-129.71014794065951
 31
0.0
  0
LINE
  5
309
  8
DATA
  6
CONTINUOUS
 62
     7
 10
112.7936921971891
 20
-129.71014794065951
 30
0.0
 11
112.7936921971891
 21
-128.90995794065961
 31
0.0
  0
POLYLINE
  5
30A
  8
DATA
  6
CONTINUOUS
 62
     7
 66
     1
 10
0.0
 20
0.0
 30
0.0
 70
   129
  0
VERTEX
  5
4FC
  8
DATA
  6
CONTINUOUS
 62
     7
 10
108.4686021971889
 20
-129.4990579406597
 30
0.0
  0
VERTEX
  5
4FD
  8
DATA
  6
CONTINUOUS
 62
     7
 10
108.4699649439828
 20
-129.49947547200981
 30
0.0
  0
VERTEX
  5
4FE
  8
DATA
  6
CONTINUOUS
 62
     7
 10
108.469964943983
 20
-129.49947547200989
 30
0.0
 42
0.0515215183433478
  0
VERTEX
  5
4FF
  8
DATA
  6
CONTINUOUS
 62
     7
 10
108.49370219718899
 20
-129.50414794065961
 30
0.0
  0
SEQEND
  5
500
  8
DATA
  6
CONTINUOUS
 62
     7
  0
LINE
  5
310
  8
DATA
  6
CONTINUOUS
 62
     7
 10
112.7936921971891
 20
-128.90995794065961
 30
0.0
 11
108.517682197189
 21
-129.7061179406596
 31
0.0
  0
POLYLINE
  5
311
  8
DATA
  6
CONTINUOUS
 62
     7
 66
     1
 10
0.0
 20
0.0
 30
0.0
 70
   129
  0
VERTEX
  5
501
  8
DATA
  6
CONTINUOUS
 62
     7
 10
108.4686021971889
 20
-129.4990579406597
 30
0.0
  0
VERTEX
  5
502
  8
DATA
  6
CONTINUOUS
 62
     7
 10
108.4699649439828
 20
-129.49947547200981
 30
0.0
  0
VERTEX
  5
503
  8
DATA
  6
CONTINUOUS
 62
     7
 10
108.469964943983
 20
-129.49947547200989
 30
0.0
 42
0.0515215183433478
  0
VERTEX
  5
504
  8
DATA
  6
CONTINUOUS
 62
     7
 10
108.49370219718899
 20
-129.50414794065961
 30
0.0
  0
SEQEND
  5
505
  8
DATA
  6
CONTINUOUS
 62
     7
  0
LINE
  5
317
  8
DATA
  6
CONTINUOUS
 62
     7
 10
105.7416921971889
 20
-129.13304794065959
 30
0.0
 11
105.5945921971889
 21
-128.99304794065961
 31
0.0
  0
LINE
  5
318
  8
DATA
  6
CONTINUOUS
 62
     7
 10
105.99230219718891
 20
-128.70024794065961
 30
0.0
 11
105.5945921971889
 21
-128.99304794065961
 31
0.0
  0
LINE
  5
319
  8
DATA
  6
CONTINUOUS
 62
     7
 10
106.029882197189
 20
-128.9217579406596
 30
0.0
 11
105.7416921971889
 21
-129.13304794065959
 31
0.0
  0
LINE
  5
31A
  8
DATA
  6
CONTINUOUS
 62
     7
 10
106.029882197189
 20
-128.9217579406596
 30
0.0
 11
108.469682197189
 21
-129.70311794065961
 31
0.0
  0
LINE
  5
31B
  8
DATA
  6
CONTINUOUS
 62
     7
 10
108.4686021971889
 20
-129.4990579406597
 30
0.0
 11
105.99230219718891
 21
-128.70024794065961
 31
0.0
  0
LINE
  5
31C
  8
DATA
  6
CONTINUOUS
 62
     7
 10
108.517682197189
 20
-129.50204794065959
 30
0.0
 11
112.993572197189
 21
-128.67002794065971
 31
0.0
  0
POLYLINE
  5
31D
  8
DATA
  6
CONTINUOUS
 62
     7
 66
     1
 10
0.0
 20
0.0
 30
0.0
 70
   129
  0
VERTEX
  5
506
  8
DATA
  6
CONTINUOUS
 62
     7
 10
108.4686021971889
 20
-129.4990579406597
 30
0.0
  0
VERTEX
  5
507
  8
DATA
  6
CONTINUOUS
 62
     7
 10
108.4699649439828
 20
-129.49947547200981
 30
0.0
  0
VERTEX
  5
508
  8
DATA
  6
CONTINUOUS
 62
     7
 10
108.469964943983
 20
-129.49947547200989
 30
0.0
 42
0.0515215183433478
  0
VERTEX
  5
509
  8
DATA
  6
CONTINUOUS
 62
     7
 10
108.49370219718899
 20
-129.50414794065961
 30
0.0
  0
SEQEND
  5
50A
  8
DATA
  6
CONTINUOUS
 62
     7
  0
LINE
  5
323
  8
DATA
  6
CONTINUOUS
 62
     7
 10
105.49361219718899
 20
-131.21014794065971
 30
0.0
 11
107.993662197189
 21
-131.21014794065971
 31
0.0
  0
LINE
  5
324
  8
DATA
  6
CONTINUOUS
 62
     7
 10
105.49361219718899
 20
-131.21014794065971
 30
0.0
 11
105.49361219718899
 21
-129.71014794065951
 31
0.0
  0
LINE
  5
325
  8
DATA
  6
CONTINUOUS
 62
     7
 10
107.993662197189
 20
-131.21014794065971
 30
0.0
 11
107.993662197189
 21
-129.71014794065951
 31
0.0
  0
LINE
  5
326
  8
DATA
  6
CONTINUOUS
 62
     7
 10
105.49361219718899
 20
-129.71014794065951
 30
0.0
 11
104.993592197189
 21
-129.71014794065951
 31
0.0
  0
LINE
  5
327
  8
DATA
  6
CONTINUOUS
 62
     7
 10
107.993662197189
 20
-129.71014794065951
 30
0.0
 11
113.493572197189
 21
-129.71014794065951
 31
0.0
  0
LINE
  5
328
  8
DATA
  6
CONTINUOUS
 62
     7
 10
107.9785921971889
 20
-129.71913794065961
 30
0.0
 11
106.325702197189
 21
-129.71913794065961
 31
0.0
  0
LINE
  5
329
  8
DATA
  6
CONTINUOUS
 62
     7
 10
106.325702197189
 20
-129.71913794065961
 30
0.0
 11
106.325702197189
 21
-129.3671379406596
 31
0.0
  0
LINE
  5
32A
  8
DATA
  6
CONTINUOUS
 62
     7
 10
106.325702197189
 20
-129.3671379406596
 30
0.0
 11
107.993662197189
 21
-129.71014794065951
 31
0.0
  0
LINE
  5
32B
  8
DATA
  6
CONTINUOUS
 62
     7
 10
90.993762197188815
 20
-133.26014794065949
 30
0.0
 11
84.993882197188796
 21
-133.71012794065959
 31
0.0
  0
LINE
  5
32C
  8
DATA
  6
CONTINUOUS
 62
     7
 10
90.993762197188815
 20
-134.16004794065961
 30
0.0
 11
84.993882197188796
 21
-133.71012794065959
 31
0.0
  0
LINE
  5
32D
  8
DATA
  6
CONTINUOUS
 62
     7
 10
90.993762197188815
 20
-134.16004794065961
 30
0.0
 11
90.993762197188815
 21
-133.26014794065949
 31
0.0
  0
LINE
  5
32E
  8
DATA
  6
CONTINUOUS
 62
     7
 10
90.993762197188815
 20
-129.26014794065961
 30
0.0
 11
84.993882197188796
 21
-129.71014794065951
 31
0.0
  0
LINE
  5
32F
  8
DATA
  6
CONTINUOUS
 62
     7
 10
90.993762197188815
 20
-130.16004794065961
 30
0.0
 11
84.993882197188796
 21
-129.71014794065951
 31
0.0
  0
LINE
  5
330
  8
DATA
  6
CONTINUOUS
 62
     7
 10
90.993762197188815
 20
-129.26014794065961
 30
0.0
 11
90.993762197188815
 21
-130.16004794065961
 31
0.0
  0
LINE
  5
331
  8
DATA
  6
CONTINUOUS
 62
     7
 10
90.993762197188815
 20
-131.26014794065961
 30
0.0
 11
84.993882197188796
 21
-131.71014794065971
 31
0.0
  0
LINE
  5
332
  8
DATA
  6
CONTINUOUS
 62
     7
 10
90.993762197188815
 20
-132.16004794065961
 30
0.0
 11
84.993882197188796
 21
-131.71014794065971
 31
0.0
  0
LINE
  5
333
  8
DATA
  6
CONTINUOUS
 62
     7
 10
90.993762197188815
 20
-131.26014794065961
 30
0.0
 11
90.993762197188815
 21
-132.16004794065961
 31
0.0
  0
LINE
  5
334
  8
DATA
  6
CONTINUOUS
 62
     7
 10
90.993762197188815
 20
-135.26014794065949
 30
0.0
 11
84.993882197188796
 21
-135.7100379406595
 31
0.0
  0
LINE
  5
335
  8
DATA
  6
CONTINUOUS
 62
     7
 10
90.993762197188815
 20
-136.1600479406595
 30
0.0
 11
84.993882197188796
 21
-135.7100379406595
 31
0.0
  0
LINE
  5
336
  8
DATA
  6
CONTINUOUS
 62
     7
 10
90.993762197188815
 20
-135.26014794065949
 30
0.0
 11
90.993762197188815
 21
-136.1600479406595
 31
0.0
  0
LINE
  5
337
  8
DATA
  6
CONTINUOUS
 62
     7
 10
90.993762197188815
 20
-137.26014794065949
 30
0.0
 11
84.993882197188796
 21
-137.7100379406595
 31
0.0
  0
LINE
  5
338
  8
DATA
  6
CONTINUOUS
 62
     7
 10
90.993762197188815
 20
-138.1600279406596
 30
0.0
 11
84.993882197188796
 21
-137.7100379406595
 31
0.0
  0
LINE
  5
339
  8
DATA
  6
CONTINUOUS
 62
     7
 10
90.993762197188815
 20
-137.26014794065949
 30
0.0
 11
90.993762197188815
 21
-138.1600279406596
 31
0.0
  0
CIRCLE
  5
33A
  8
DATA
  6
CONTINUOUS
 62
     7
 10
129.15680000025199
 20
-133.36117736079001
 30
0.0
 40
0.6279809320001278
  0
CIRCLE
  5
33B
  8
DATA
  6
CONTINUOUS
 62
     7
 10
133.34320000025201
 20
-133.36117736079001
 30
0.0
 40
0.6278867380000861
  0
CIRCLE
  5
33C
  8
DATA
  6
CONTINUOUS
 62
     7
 10
131.25000000025199
 20
-136.0200930204868
 30
0.0
 40
0.6278553400000533
  0
LINE
  5
33D
  8
DATA
  6
CONTINUOUS
 62
     7
 10
130.203400000252
 20
-129.6045501464869
 30
0.0
 11
130.203400000252
 21
-130.41658615448691
 31
0.0
  0
LINE
  5
33E
  8
DATA
  6
CONTINUOUS
 62
     7
 10
132.296600000252
 20
-129.6045501464869
 30
0.0
 11
132.296600000252
 21
-130.41658615448691
 31
0.0
  0
LINE
  5
33F
  8
DATA
  6
CONTINUOUS
 62
     7
 10
128.98305393425201
 20
-131.048743020487
 30
0.0
 11
133.5157634082519
 21
-131.048743020487
 31
0.0
  0
ARC
  5
340
  8
DATA
  6
CONTINUOUS
 62
     7
 10
131.25000000025199
 20
-133.9268930204868
 30
0.0
 40
3.6630077605004878
 50
106.6019797549919
 51
73.398020245008183
  0
ARC
  5
341
  8
DATA
  6
CONTINUOUS
 62
     7
 10
131.25000000025199
 20
-133.9268930204868
 30
0.0
 40
4.4472485291940034
 50
103.61146039991721
 51
76.401326097578789
  0
LINE
  5
342
  8
DATA
  6
CONTINUOUS
 62
     7
 10
129.50113140025209
 20
-130.7086084864869
 30
0.0
 11
132.997717340252
 21
-130.7086084864869
 31
0.0
  0
LINE
  5
343
  8
DATA
  6
CONTINUOUS
 62
     7
 10
130.30795534025211
 20
-128.9555430204868
 30
0.0
 11
132.19180394225211
 21
-128.9555430204868
 31
0.0
  0
LINE
  5
344
  8
DATA
  6
CONTINUOUS
 62
     7
 10
132.19180394225211
 20
-128.9555430204868
 30
0.0
 11
132.19180394225211
 21
-130.5894007464868
 31
0.0
  0
LINE
  5
345
  8
DATA
  6
CONTINUOUS
 62
     7
 10
132.19180394225211
 20
-130.5894007464868
 30
0.0
 11
130.30795534025211
 21
-130.5894007464868
 31
0.0
  0
LINE
  5
346
  8
DATA
  6
CONTINUOUS
 62
     7
 10
130.30795534025211
 20
-130.5894007464868
 30
0.0
 11
130.30795534025211
 21
-128.9555430204868
 31
0.0
  0
CIRCLE
  5
347
  8
DATA
  6
CONTINUOUS
 62
     7
 10
131.25000000025199
 20
-133.9268930204868
 30
0.0
 40
5.494555805999993
  0
LINE
  5
348
  8
DATA
  6
CONTINUOUS
 62
     7
 10
129.680100000252
 20
-128.6615635464868
 30
0.0
 11
129.680100000252
 21
-127.8346239544869
 31
0.0
  0
LINE
  5
349
  8
DATA
  6
CONTINUOUS
 62
     7
 10
132.81990000025201
 20
-127.8346239544869
 30
0.0
 11
132.81990000025201
 21
-128.6615635464868
 31
0.0
  0
ARC
  5
34A
  8
DATA
  6
CONTINUOUS
 62
     7
 10
131.25000000025199
 20
-128.616434154487
 30
0.0
 40
1.7537996461466641
 50
26.473304610960589
 51
153.52669538903939
  0
CIRCLE
  5
34B
  8
DATA
  6
CONTINUOUS
 62
     7
 10
131.25000000025199
 20
-133.9268930204868
 30
0.0
 40
5.494555805999993
  0
ARC
  5
34C
  8
DATA
  6
CONTINUOUS
 62
     7
 10
101.46168219718891
 20
-128.63608794065959
 30
0.0
 40
1.6756891300297769
 50
26.47330338667992
 51
153.52700145607321
  0
LINE
  5
34D
  8
DATA
  6
CONTINUOUS
 62
     7
 10
99.961672197188804
 20
-127.8890979406597
 30
0.0
 11
99.961672197188804
 21
-128.46014794065951
 31
0.0
  0
LINE
  5
34E
  8
DATA
  6
CONTINUOUS
 62
     7
 10
102.9616621971888
 20
-127.8890979406597
 30
0.0
 11
102.9616621971888
 21
-128.46014794065951
 31
0.0
  0
LINE
  5
34F
  8
DATA
  6
CONTINUOUS
 62
     7
 10
60.993842197188037
 20
-131.71009294065959
 30
0.0
 11
60.993842197188037
 21
-135.71009294065959
 31
0.0
  0
LINE
  5
350
  8
DATA
  6
CONTINUOUS
 62
     7
 10
77.993842197188343
 20
-131.21009294065959
 30
0.0
 11
60.993842197188037
 21
-131.71009294065959
 31
0.0
  0
LINE
  5
351
  8
DATA
  6
CONTINUOUS
 62
     7
 10
77.993842197188343
 20
-136.21009294065959
 30
0.0
 11
60.993842197188037
 21
-135.71009294065959
 31
0.0
  0
LINE
  5
352
  8
DATA
  6
CONTINUOUS
 62
     7
 10
182.77158737248479
 20
-32.749750000371883
 30
0.0
 11
182.02158737248479
 21
-19.749830000371482
 31
0.0
  0
LINE
  5
353
  8
DATA
  6
CONTINUOUS
 62
     7
 10
192.25787181550061
 20
-32.749750000371883
 30
0.0
 11
193.00787181550061
 21
-19.749830000371482
 31
0.0
  0
LINE
  5
354
  8
DATA
  6
CONTINUOUS
 62
     7
 10
182.77158737248479
 20
-32.749750000371883
 30
0.0
 11
192.25787181550061
 21
-32.749750000371883
 31
0.0
  0
LINE
  5
355
  8
DATA
  6
CONTINUOUS
 62
     7
 10
182.02158737248479
 20
-19.749830000371482
 30
0.0
 11
182.02158737248479
 21
-13.24978000037148
 31
0.0
  0
LINE
  5
356
  8
DATA
  6
CONTINUOUS
 62
     7
 10
193.00787181550061
 20
-19.749830000371482
 30
0.0
 11
193.00787181550061
 21
-13.24978000037148
 31
0.0
  0
LINE
  5
357
  8
DATA
  6
CONTINUOUS
 62
     7
 10
182.02158737248479
 20
-13.24978000037148
 30
0.0
 11
193.00787181550061
 21
-13.24978000037148
 31
0.0
  0
LINE
  5
358
  8
DATA
  6
CONTINUOUS
 62
     7
 10
182.02158737248479
 20
-13.24978000037148
 30
0.0
 11
182.02158737248479
 21
-5.7500000003712719
 31
0.0
  0
LINE
  5
359
  8
DATA
  6
CONTINUOUS
 62
     7
 10
193.00787181550061
 20
-5.7500000003712719
 30
0.0
 11
193.00787181550061
 21
-13.24978000037148
 31
0.0
  0
LINE
  5
35A
  8
DATA
  6
CONTINUOUS
 62
     7
 10
182.02158737248479
 20
-13.149860000371371
 30
0.0
 11
193.00787181550061
 21
-13.149860000371371
 31
0.0
  0
LINE
  5
35B
  8
DATA
  6
CONTINUOUS
 62
     7
 10
186.82158737248469
 20
-19.749830000371482
 30
0.0
 11
187.27156737248481
 21
-25.74971000037155
 31
0.0
  0
LINE
  5
35C
  8
DATA
  6
CONTINUOUS
 62
     7
 10
187.7214873724848
 20
-19.749830000371482
 30
0.0
 11
187.27156737248481
 21
-25.74971000037155
 31
0.0
  0
LINE
  5
35D
  8
DATA
  6
CONTINUOUS
 62
     7
 10
187.7214873724848
 20
-19.749830000371482
 30
0.0
 11
186.82158737248469
 21
-19.749830000371482
 31
0.0
  0
LINE
  5
35E
  8
DATA
  6
CONTINUOUS
 62
     7
 10
182.8215873724848
 20
-19.749830000371482
 30
0.0
 11
183.27158737248479
 21
-25.74971000037155
 31
0.0
  0
LINE
  5
35F
  8
DATA
  6
CONTINUOUS
 62
     7
 10
183.7214873724848
 20
-19.749830000371482
 30
0.0
 11
183.27158737248479
 21
-25.74971000037155
 31
0.0
  0
LINE
  5
360
  8
DATA
  6
CONTINUOUS
 62
     7
 10
182.8215873724848
 20
-19.749830000371482
 30
0.0
 11
183.7214873724848
 21
-19.749830000371482
 31
0.0
  0
LINE
  5
361
  8
DATA
  6
CONTINUOUS
 62
     7
 10
184.8215873724848
 20
-19.749830000371482
 30
0.0
 11
185.2715873724849
 21
-25.74971000037155
 31
0.0
  0
LINE
  5
362
  8
DATA
  6
CONTINUOUS
 62
     7
 10
185.7214873724848
 20
-19.749830000371482
 30
0.0
 11
185.2715873724849
 21
-25.74971000037155
 31
0.0
  0
LINE
  5
363
  8
DATA
  6
CONTINUOUS
 62
     7
 10
184.8215873724848
 20
-19.749830000371482
 30
0.0
 11
185.7214873724848
 21
-19.749830000371482
 31
0.0
  0
LINE
  5
364
  8
DATA
  6
CONTINUOUS
 62
     7
 10
188.82158737248469
 20
-19.749830000371482
 30
0.0
 11
189.2714773724845
 21
-25.74971000037155
 31
0.0
  0
LINE
  5
365
  8
DATA
  6
CONTINUOUS
 62
     7
 10
189.7214873724846
 20
-19.749830000371482
 30
0.0
 11
189.2714773724845
 21
-25.74971000037155
 31
0.0
  0
LINE
  5
366
  8
DATA
  6
CONTINUOUS
 62
     7
 10
188.82158737248469
 20
-19.749830000371482
 30
0.0
 11
189.7214873724846
 21
-19.749830000371482
 31
0.0
  0
LINE
  5
367
  8
DATA
  6
CONTINUOUS
 62
     7
 10
190.82158737248449
 20
-19.749830000371482
 30
0.0
 11
191.27147737248441
 21
-25.74971000037155
 31
0.0
  0
LINE
  5
368
  8
DATA
  6
CONTINUOUS
 62
     7
 10
191.72146737248451
 20
-19.749830000371482
 30
0.0
 11
191.27147737248441
 21
-25.74971000037155
 31
0.0
  0
LINE
  5
369
  8
DATA
  6
CONTINUOUS
 62
     7
 10
190.82158737248449
 20
-19.749830000371482
 30
0.0
 11
191.72146737248451
 21
-19.749830000371482
 31
0.0
  0
LINE
  5
36A
  8
DATA
  6
CONTINUOUS
 62
     7
 10
185.27153237248481
 20
-49.749750000372103
 30
0.0
 11
189.27153237248481
 21
-49.749750000372103
 31
0.0
  0
LINE
  5
36B
  8
DATA
  6
CONTINUOUS
 62
     7
 10
184.77153237248481
 20
-32.749750000371883
 30
0.0
 11
185.27153237248481
 21
-49.749750000372103
 31
0.0
  0
LINE
  5
36C
  8
DATA
  6
CONTINUOUS
 62
     7
 10
189.7715323724847
 20
-32.749750000371883
 30
0.0
 11
189.27153237248481
 21
-49.749750000372103
 31
0.0
  0
LINE
  5
36D
  8
DATA
  6
CONTINUOUS
 62
     7
 10
188.27153237248481
 20
-49.749750000372103
 30
0.0
 11
188.27153237248481
 21
-67.0
 31
0.0
  0
LINE
  5
36E
  8
DATA
  6
CONTINUOUS
 62
     7
 10
186.27153237248481
 20
-49.749750000372103
 30
0.0
 11
186.27153237248481
 21
-67.0
 31
0.0
  0
ARC
  5
36F
  8
DATA
  6
STYLE_01
 62
     7
 10
-37.500000000292928
 20
213.19504384536489
 30
0.0
 40
17.800000000000011
 50
298.5790494762349
 51
241.42095052376499
  0
LINE
  5
370
  8
DATA
  6
STYLE_01
 62
     7
 10
-46.015000000656222
 20
197.56383228023611
 30
0.0
 11
-28.984999999929659
 21
197.56383228023611
 31
0.0
  0
TEXT
  5
371
  8
DATA
 62
     7
 10
-0.953548116328847
 20
242.90564795111601
 30
0.0
 40
8.1442057291666661
  1
ウインドスクリーン
 41
0.7
 11
-0.9535481163288466
 21
251.04985368028261
 31
0.0
 73
     3
  0
LINE
  5
372
  8
DATA
  6
CONTINUOUS
 62
     7
 10
-8.4950000006562334
 20
240.16048239529729
 30
0.0
 11
-25.575563580362569
 21
226.41048239529729
 31
0.0
  0
LINE
  5
373
  8
DATA
  6
CONTINUOUS
 62
     7
 10
-25.575563580362569
 20
226.41048239529729
 30
0.0
 11
-19.641062255819062
 21
234.28583164693219
 31
0.0
  0
LINE
  5
374
  8
DATA
  6
CONTINUOUS
 62
     7
 10
-25.575563580362569
 20
226.41048239529729
 30
0.0
 11
-16.498460048698021
 21
230.26348424861621
 31
0.0
  0
LINE
  5
375
  8
DATA
  6
CONTINUOUS
 62
     7
 10
-8.4950000006562334
 20
240.16048239529729
 30
0.0
 11
95.433720870220853
 21
240.16048239529729
 31
0.0
  0
ARC
  5
376
  8
DATA
  6
STYLE_01
 62
     7
 10
187.7745454098837
 20
213.3141069823568
 30
0.0
 40
17.799999999999979
 50
298.57904947623467
 51
241.42095052376499
  0
LINE
  5
377
  8
DATA
  6
STYLE_01
 62
     7
 10
179.25954540952031
 20
197.68289541722811
 30
0.0
 11
196.28954541024689
 21
197.68289541722811
 31
0.0
  0
CIRCLE
  5
378
  8
DATA
  6
STYLE_01
 62
     7
 10
-37.795000000656231
 20
280.8990475226405
 30
0.0
 40
17.79999999999999
  0
LINE
  5
379
  8
DATA
  6
CONTINUOUS
 62
     7
 10
-40.450000000292917
 20
84.0
 30
0.0
 11
-34.55000000029294
 21
84.950000000000017
 31
0.0
  0
LINE
  5
37A
  8
DATA
  6
CONTINUOUS
 62
     7
 10
-40.450000000292917
 20
82.0
 30
0.0
 11
-34.55000000029294
 21
82.950000000000017
 31
0.0
  0
LINE
  5
37B
  8
DATA
  6
CONTINUOUS
 62
     7
 10
-40.450000000292917
 20
80.0
 30
0.0
 11
-34.55000000029294
 21
80.950000000000017
 31
0.0
  0
LINE
  5
37C
  8
DATA
  6
CONTINUOUS
 62
     7
 10
-40.450000000292917
 20
78.0
 30
0.0
 11
-34.55000000029294
 21
78.950000000000017
 31
0.0
  0
LINE
  5
37D
  8
DATA
  6
CONTINUOUS
 62
     7
 10
-40.450000000292917
 20
76.0
 30
0.0
 11
-34.55000000029294
 21
76.950000000000017
 31
0.0
  0
LINE
  5
37E
  8
DATA
  6
CONTINUOUS
 62
     7
 10
-40.450000000292917
 20
74.0
 30
0.0
 11
-34.55000000029294
 21
74.950000000000017
 31
0.0
  0
LINE
  5
37F
  8
DATA
  6
CONTINUOUS
 62
     7
 10
-40.450000000292917
 20
72.0
 30
0.0
 11
-34.55000000029294
 21
72.950000000000017
 31
0.0
  0
LINE
  5
380
  8
DATA
  6
CONTINUOUS
 62
     7
 10
-40.450000000292917
 20
70.0
 30
0.0
 11
-34.55000000029294
 21
70.950000000000017
 31
0.0
  0
LINE
  5
381
  8
DATA
  6
CONTINUOUS
 62
     7
 10
-40.450000000292917
 20
68.0
 30
0.0
 11
-34.55000000029294
 21
68.950000000000017
 31
0.0
  0
LINE
  5
382
  8
DATA
  6
CONTINUOUS
 62
     7
 10
-40.450000000292917
 20
66.0
 30
0.0
 11
-34.55000000029294
 21
66.950000000000017
 31
0.0
  0
LINE
  5
383
  8
DATA
  6
CONTINUOUS
 62
     7
 10
-40.450000000292917
 20
64.0
 30
0.0
 11
-34.55000000029294
 21
64.950000000000017
 31
0.0
  0
LINE
  5
384
  8
DATA
  6
CONTINUOUS
 62
     7
 10
-40.450000000292917
 20
62.0
 30
0.0
 11
-34.55000000029294
 21
62.95000000000001
 31
0.0
  0
LINE
  5
385
  8
DATA
  6
CONTINUOUS
 62
     7
 10
-40.450000000292917
 20
60.0
 30
0.0
 11
-34.55000000029294
 21
60.950000000000017
 31
0.0
  0
LINE
  5
386
  8
DATA
  6
CONTINUOUS
 62
     7
 10
-40.450000000292917
 20
58.0
 30
0.0
 11
-34.55000000029294
 21
58.950000000000017
 31
0.0
  0
LINE
  5
387
  8
DATA
  6
CONTINUOUS
 62
     7
 10
-40.450000000292917
 20
56.0
 30
0.0
 11
-34.55000000029294
 21
56.950000000000017
 31
0.0
  0
LINE
  5
388
  8
DATA
  6
CONTINUOUS
 62
     7
 10
-40.450000000292917
 20
54.0
 30
0.0
 11
-34.55000000029294
 21
54.95000000000001
 31
0.0
  0
LINE
  5
389
  8
DATA
  6
CONTINUOUS
 62
     7
 10
-40.450000000292917
 20
52.0
 30
0.0
 11
-34.55000000029294
 21
52.95000000000001
 31
0.0
  0
LINE
  5
38A
  8
DATA
  6
CONTINUOUS
 62
     7
 10
-40.450000000292917
 20
50.0
 30
0.0
 11
-34.55000000029294
 21
50.950000000000017
 31
0.0
  0
LINE
  5
38B
  8
DATA
  6
CONTINUOUS
 62
     7
 10
-40.450000000292917
 20
48.0
 30
0.0
 11
-34.55000000029294
 21
48.950000000000017
 31
0.0
  0
LINE
  5
38C
  8
DATA
  6
CONTINUOUS
 62
     7
 10
-40.450000000292917
 20
46.0
 30
0.0
 11
-34.55000000029294
 21
46.950000000000017
 31
0.0
  0
LINE
  5
38D
  8
DATA
  6
CONTINUOUS
 62
     7
 10
-40.450000000292917
 20
44.0
 30
0.0
 11
-34.55000000029294
 21
44.95000000000001
 31
0.0
  0
LINE
  5
38E
  8
DATA
  6
CONTINUOUS
 62
     7
 10
-40.450000000292917
 20
42.0
 30
0.0
 11
-34.55000000029294
 21
42.95000000000001
 31
0.0
  0
LINE
  5
38F
  8
DATA
  6
CONTINUOUS
 62
     7
 10
-40.450000000292917
 20
40.0
 30
0.0
 11
-34.55000000029294
 21
40.95000000000001
 31
0.0
  0
LINE
  5
390
  8
DATA
  6
CONTINUOUS
 62
     7
 10
-40.450000000292917
 20
38.0
 30
0.0
 11
-34.55000000029294
 21
38.950000000000017
 31
0.0
  0
LINE
  5
391
  8
DATA
  6
CONTINUOUS
 62
     7
 10
-40.450000000292917
 20
36.0
 30
0.0
 11
-34.55000000029294
 21
36.950000000000017
 31
0.0
  0
LINE
  5
392
  8
DATA
  6
CONTINUOUS
 62
     7
 10
-40.450000000292917
 20
34.0
 30
0.0
 11
-34.55000000029294
 21
34.950000000000017
 31
0.0
  0
LINE
  5
393
  8
DATA
  6
CONTINUOUS
 62
     7
 10
-40.450000000292917
 20
32.0
 30
0.0
 11
-34.55000000029294
 21
32.950000000000017
 31
0.0
  0
LINE
  5
394
  8
DATA
  6
CONTINUOUS
 62
     7
 10
-31.815000000656209
 20
-5.3499999999999934
 30
0.0
 11
-43.289402715859218
 21
-5.3499999999999934
 31
0.0
  0
LINE
  5
395
  8
DATA
  6
CONTINUOUS
 62
     7
 10
-44.500000000292928
 20
-4.75
 30
0.0
 11
-30.500000000292928
 21
-4.75
 31
0.0
  0
LINE
  5
396
  8
DATA
  6
CONTINUOUS
 62
     7
 10
-43.289402715859218
 20
-5.3499999999999934
 30
0.0
 11
-43.289402715859218
 21
-4.75
 31
0.0
  0
LINE
  5
397
  8
DATA
  6
CONTINUOUS
 62
     7
 10
-31.815000000656209
 20
-5.3499999999999934
 30
0.0
 11
-31.815000000656209
 21
-4.75
 31
0.0
  0
LINE
  5
398
  8
DATA
  6
CONTINUOUS
 62
     7
 10
-50.295000000292937
 20
21.249999999999979
 30
0.0
 11
-75.495000000292933
 21
21.249999999999979
 31
0.0
  0
LINE
  5
399
  8
DATA
  6
CONTINUOUS
 62
     7
 10
-50.295000000292937
 20
10.25
 30
0.0
 11
-51.395000000292931
 21
10.25
 31
0.0
  0
LINE
  5
39A
  8
DATA
  6
CONTINUOUS
 62
     7
 10
-74.395000000292939
 20
10.25
 30
0.0
 11
-75.495000000292933
 21
10.25
 31
0.0
  0
LINE
  5
39B
  8
DATA
  6
CONTINUOUS
 62
     7
 10
-75.495000000292933
 20
10.25
 30
0.0
 11
-75.495000000292933
 21
21.249999999999979
 31
0.0
  0
LINE
  5
39C
  8
DATA
  6
CONTINUOUS
 62
     7
 10
-74.395000000292939
 20
-17.75
 30
0.0
 11
-74.395000000292939
 21
15.75
 31
0.0
  0
LINE
  5
39D
  8
DATA
  6
CONTINUOUS
 62
     7
 10
-51.395000000292931
 20
15.75
 30
0.0
 11
-51.395000000292931
 21
-17.75
 31
0.0
  0
LINE
  5
39E
  8
DATA
  6
CONTINUOUS
 62
     7
 10
184.5449999996633
 20
84.0
 30
0.0
 11
190.44499999966331
 21
84.950000000000017
 31
0.0
  0
LINE
  5
39F
  8
DATA
  6
CONTINUOUS
 62
     7
 10
184.5449999996633
 20
82.0
 30
0.0
 11
190.44499999966331
 21
82.950000000000017
 31
0.0
  0
LINE
  5
3A0
  8
DATA
  6
CONTINUOUS
 62
     7
 10
184.5449999996633
 20
80.0
 30
0.0
 11
190.44499999966331
 21
80.950000000000017
 31
0.0
  0
LINE
  5
3A1
  8
DATA
  6
CONTINUOUS
 62
     7
 10
184.5449999996633
 20
78.0
 30
0.0
 11
190.44499999966331
 21
78.950000000000017
 31
0.0
  0
LINE
  5
3A2
  8
DATA
  6
CONTINUOUS
 62
     7
 10
184.5449999996633
 20
76.0
 30
0.0
 11
190.44499999966331
 21
76.950000000000017
 31
0.0
  0
LINE
  5
3A3
  8
DATA
  6
CONTINUOUS
 62
     7
 10
184.5449999996633
 20
74.0
 30
0.0
 11
190.44499999966331
 21
74.950000000000017
 31
0.0
  0
LINE
  5
3A4
  8
DATA
  6
CONTINUOUS
 62
     7
 10
184.5449999996633
 20
72.0
 30
0.0
 11
190.44499999966331
 21
72.950000000000017
 31
0.0
  0
LINE
  5
3A5
  8
DATA
  6
CONTINUOUS
 62
     7
 10
184.5449999996633
 20
70.0
 30
0.0
 11
190.44499999966331
 21
70.950000000000017
 31
0.0
  0
LINE
  5
3A6
  8
DATA
  6
CONTINUOUS
 62
     7
 10
184.5449999996633
 20
68.0
 30
0.0
 11
190.44499999966331
 21
68.950000000000017
 31
0.0
  0
LINE
  5
3A7
  8
DATA
  6
CONTINUOUS
 62
     7
 10
184.5449999996633
 20
66.0
 30
0.0
 11
190.44499999966331
 21
66.950000000000017
 31
0.0
  0
LINE
  5
3A8
  8
DATA
  6
CONTINUOUS
 62
     7
 10
184.5449999996633
 20
64.0
 30
0.0
 11
190.44499999966331
 21
64.950000000000017
 31
0.0
  0
LINE
  5
3A9
  8
DATA
  6
CONTINUOUS
 62
     7
 10
184.5449999996633
 20
62.0
 30
0.0
 11
190.44499999966331
 21
62.95000000000001
 31
0.0
  0
LINE
  5
3AA
  8
DATA
  6
CONTINUOUS
 62
     7
 10
184.5449999996633
 20
60.0
 30
0.0
 11
190.44499999966331
 21
60.950000000000017
 31
0.0
  0
LINE
  5
3AB
  8
DATA
  6
CONTINUOUS
 62
     7
 10
184.5449999996633
 20
58.0
 30
0.0
 11
190.44499999966331
 21
58.950000000000017
 31
0.0
  0
LINE
  5
3AC
  8
DATA
  6
CONTINUOUS
 62
     7
 10
184.5449999996633
 20
56.0
 30
0.0
 11
190.44499999966331
 21
56.950000000000017
 31
0.0
  0
LINE
  5
3AD
  8
DATA
  6
CONTINUOUS
 62
     7
 10
184.5449999996633
 20
54.0
 30
0.0
 11
190.44499999966331
 21
54.95000000000001
 31
0.0
  0
LINE
  5
3AE
  8
DATA
  6
CONTINUOUS
 62
     7
 10
184.5449999996633
 20
52.0
 30
0.0
 11
190.44499999966331
 21
52.95000000000001
 31
0.0
  0
LINE
  5
3AF
  8
DATA
  6
CONTINUOUS
 62
     7
 10
184.5449999996633
 20
50.0
 30
0.0
 11
190.44499999966331
 21
50.950000000000017
 31
0.0
  0
LINE
  5
3B0
  8
DATA
  6
CONTINUOUS
 62
     7
 10
184.5449999996633
 20
48.0
 30
0.0
 11
190.44499999966331
 21
48.950000000000017
 31
0.0
  0
LINE
  5
3B1
  8
DATA
  6
CONTINUOUS
 62
     7
 10
184.5449999996633
 20
46.0
 30
0.0
 11
190.44499999966331
 21
46.950000000000017
 31
0.0
  0
LINE
  5
3B2
  8
DATA
  6
CONTINUOUS
 62
     7
 10
184.5449999996633
 20
44.0
 30
0.0
 11
190.44499999966331
 21
44.95000000000001
 31
0.0
  0
LINE
  5
3B3
  8
DATA
  6
CONTINUOUS
 62
     7
 10
184.5449999996633
 20
42.0
 30
0.0
 11
190.44499999966331
 21
42.95000000000001
 31
0.0
  0
LINE
  5
3B4
  8
DATA
  6
CONTINUOUS
 62
     7
 10
184.5449999996633
 20
40.0
 30
0.0
 11
190.44499999966331
 21
40.95000000000001
 31
0.0
  0
LINE
  5
3B5
  8
DATA
  6
CONTINUOUS
 62
     7
 10
184.5449999996633
 20
38.0
 30
0.0
 11
190.44499999966331
 21
38.950000000000017
 31
0.0
  0
LINE
  5
3B6
  8
DATA
  6
CONTINUOUS
 62
     7
 10
184.5449999996633
 20
36.0
 30
0.0
 11
190.44499999966331
 21
36.950000000000017
 31
0.0
  0
LINE
  5
3B7
  8
DATA
  6
CONTINUOUS
 62
     7
 10
184.5449999996633
 20
34.0
 30
0.0
 11
190.44499999966331
 21
34.950000000000017
 31
0.0
  0
LINE
  5
3B8
  8
DATA
  6
CONTINUOUS
 62
     7
 10
184.5449999996633
 20
32.0
 30
0.0
 11
190.44499999966331
 21
32.950000000000017
 31
0.0
  0
LINE
  5
3B9
  8
DATA
  6
CONTINUOUS
 62
     7
 10
-47.995000000292933
 20
274.5249999998191
 30
0.0
 11
-47.495000000292933
 21
274.5249999998191
 31
0.0
  0
LINE
  5
3BA
  8
DATA
  6
CONTINUOUS
 62
     7
 10
-50.295000000292937
 20
274.5249999998191
 30
0.0
 11
-74.495000000292904
 21
274.5249999998191
 31
0.0
  0
LINE
  5
3BB
  8
DATA
  6
CONTINUOUS
 62
     7
 10
-72.495000000292904
 20
268.49999999971908
 30
0.0
 11
-72.495000000292904
 21
274.5249999998191
 31
0.0
  0
LINE
  5
3BC
  8
DATA
  6
CONTINUOUS
 62
     7
 10
-53.495000000292933
 20
268.49999999971908
 30
0.0
 11
-53.495000000292933
 21
274.5249999998191
 31
0.0
  0
LINE
  5
3BD
  8
DATA
  6
CONTINUOUS
 62
     7
 10
-33.000000000292928
 20
159.25
 30
0.0
 11
-42.000000000292928
 21
159.25
 31
0.0
  0
LINE
  5
3BE
  8
DATA
  6
CONTINUOUS
 62
     7
 10
-32.600000000292951
 20
171.25
 30
0.0
 11
-42.400000000292962
 21
171.25
 31
0.0
  0
LINE
  5
3BF
  8
DATA
  6
CONTINUOUS
 62
     7
 10
-42.000000000292928
 20
159.25
 30
0.0
 11
-42.400000000292962
 21
171.25
 31
0.0
  0
LINE
  5
3C0
  8
DATA
  6
CONTINUOUS
 62
     7
 10
-33.000000000292928
 20
159.25
 30
0.0
 11
-32.600000000292951
 21
171.25
 31
0.0
  0
LINE
  5
3C1
  8
DATA
  6
CONTINUOUS
 62
     7
 10
-32.600000000292951
 20
189.25
 30
0.0
 11
-42.400000000292962
 21
189.25
 31
0.0
  0
LINE
  5
3C2
  8
DATA
  6
CONTINUOUS
 62
     7
 10
-42.400000000292962
 20
171.25
 30
0.0
 11
-42.400000000292962
 21
201.9262352984951
 31
0.0
  0
LINE
  5
3C3
  8
DATA
  6
CONTINUOUS
 62
     7
 10
-32.600000000292951
 20
171.25
 30
0.0
 11
-32.600000000292951
 21
201.9262352984951
 31
0.0
  0
CIRCLE
  5
3C4
  8
DATA
  6
CONTINUOUS
 62
     7
 10
-37.500000000292928
 20
208.25
 30
0.0
 40
8.0
  0
CIRCLE
  5
3C5
  8
DATA
  6
CONTINUOUS
 62
     7
 10
-37.500000000292928
 20
208.25
 30
0.0
 40
3.9499999999999882
  0
CIRCLE
  5
3C6
  8
DATA
  6
CONTINUOUS
 62
     7
 10
-37.500000000292928
 20
208.25
 30
0.0
 40
5.849999999999965
  0
LINE
  5
3C7
  8
DATA
  6
CONTINUOUS
 62
     7
 10
-39.450000000292917
 20
213.76543289325511
 30
0.0
 11
-39.450000000292917
 21
216.00870478881629
 31
0.0
  0
LINE
  5
3C8
  8
DATA
  6
CONTINUOUS
 62
     7
 10
-35.55000000029294
 20
213.76543289325511
 30
0.0
 11
-35.55000000029294
 21
216.00870478881629
 31
0.0
  0
LINE
  5
3C9
  8
DATA
  6
CONTINUOUS
 62
     7
 10
-33.698495001865943
 20
212.69646598400701
 30
0.0
 11
-31.7557645527137
 21
213.81810193178799
 31
0.0
  0
LINE
  5
3CA
  8
DATA
  6
CONTINUOUS
 62
     7
 10
-31.748495001865219
 20
209.31896690924819
 30
0.0
 11
-29.805764552713431
 21
210.44060285702889
 31
0.0
  0
LINE
  5
3CB
  8
DATA
  6
CONTINUOUS
 62
     7
 10
-41.301504998720723
 20
212.69646598400749
 30
0.0
 11
-43.244235447871581
 21
213.8181019317876
 31
0.0
  0
LINE
  5
3CC
  8
DATA
  6
CONTINUOUS
 62
     7
 10
-43.251504998719902
 20
209.31896690924771
 30
0.0
 11
-45.194235447870952
 21
210.44060285702801
 31
0.0
  0
LINE
  5
3CD
  8
DATA
  6
CONTINUOUS
 62
     7
 10
-43.251504998719902
 20
207.18103309075221
 30
0.0
 11
-45.194235447872202
 21
206.05939714297131
 31
0.0
  0
LINE
  5
3CE
  8
DATA
  6
CONTINUOUS
 62
     7
 10
-41.301504998720723
 20
203.80353401599251
 30
0.0
 11
-43.244235447872562
 21
202.68189806821181
 31
0.0
  0
LINE
  5
3CF
  8
DATA
  6
CONTINUOUS
 62
     7
 10
-39.450000000292917
 20
200.49129521118371
 30
0.0
 11
-39.450000000292917
 21
202.73456710674489
 31
0.0
  0
LINE
  5
3D0
  8
DATA
  6
CONTINUOUS
 62
     7
 10
-35.55000000029294
 20
200.49129521118371
 30
0.0
 11
-35.55000000029294
 21
202.73456710674489
 31
0.0
  0
LINE
  5
3D1
  8
DATA
  6
CONTINUOUS
 62
     7
 10
-31.75576455271484
 20
202.68189806821269
 30
0.0
 11
-33.698495001865879
 21
203.80353401599291
 31
0.0
  0
LINE
  5
3D2
  8
DATA
  6
CONTINUOUS
 62
     7
 10
-29.80576455271428
 20
206.05939714297159
 30
0.0
 11
-31.748495001865219
 21
207.1810330907517
 31
0.0
  0
LINE
  5
3D3
  8
DATA
  6
CONTINUOUS
 62
     7
 10
-40.450000000292917
 20
86.0
 30
0.0
 11
-34.55000000029294
 21
86.950000000000017
 31
0.0
  0
LINE
  5
3D4
  8
DATA
  6
CONTINUOUS
 62
     7
 10
-40.450000000292917
 20
88.0
 30
0.0
 11
-34.55000000029294
 21
88.950000000000017
 31
0.0
  0
LINE
  5
3D5
  8
DATA
  6
CONTINUOUS
 62
     7
 10
-40.450000000292917
 20
90.0
 30
0.0
 11
-34.55000000029294
 21
90.950000000000003
 31
0.0
  0
LINE
  5
3D6
  8
DATA
  6
CONTINUOUS
 62
     7
 10
-40.450000000292917
 20
92.0
 30
0.0
 11
-34.55000000029294
 21
92.949999999999989
 31
0.0
  0
LINE
  5
3D7
  8
DATA
  6
CONTINUOUS
 62
     7
 10
-40.450000000292917
 20
94.0
 30
0.0
 11
-34.55000000029294
 21
94.950000000000003
 31
0.0
  0
LINE
  5
3D8
  8
DATA
  6
CONTINUOUS
 62
     7
 10
-40.450000000292917
 20
96.0
 30
0.0
 11
-34.55000000029294
 21
96.950000000000003
 31
0.0
  0
LINE
  5
3D9
  8
DATA
  6
CONTINUOUS
 62
     7
 10
-40.450000000292917
 20
98.0
 30
0.0
 11
-34.55000000029294
 21
98.950000000000017
 31
0.0
  0
LINE
  5
3DA
  8
DATA
  6
CONTINUOUS
 62
     7
 10
-40.450000000292917
 20
100.0
 30
0.0
 11
-34.55000000029294
 21
100.95
 31
0.0
  0
LINE
  5
3DB
  8
DATA
  6
CONTINUOUS
 62
     7
 10
-40.450000000292917
 20
102.0
 30
0.0
 11
-34.55000000029294
 21
102.95
 31
0.0
  0
LINE
  5
3DC
  8
DATA
  6
CONTINUOUS
 62
     7
 10
-40.450000000292917
 20
104.0
 30
0.0
 11
-34.55000000029294
 21
104.95
 31
0.0
  0
LINE
  5
3DD
  8
DATA
  6
CONTINUOUS
 62
     7
 10
-40.450000000292917
 20
106.0
 30
0.0
 11
-34.55000000029294
 21
106.95
 31
0.0
  0
LINE
  5
3DE
  8
DATA
  6
CONTINUOUS
 62
     7
 10
-40.450000000292917
 20
108.0
 30
0.0
 11
-34.55000000029294
 21
108.95
 31
0.0
  0
LINE
  5
3DF
  8
DATA
  6
CONTINUOUS
 62
     7
 10
-40.450000000292917
 20
110.0
 30
0.0
 11
-34.55000000029294
 21
110.95
 31
0.0
  0
LINE
  5
3E0
  8
DATA
  6
CONTINUOUS
 62
     7
 10
-40.450000000292917
 20
112.0
 30
0.0
 11
-34.55000000029294
 21
112.95
 31
0.0
  0
LINE
  5
3E1
  8
DATA
  6
CONTINUOUS
 62
     7
 10
-40.450000000292917
 20
114.0
 30
0.0
 11
-34.55000000029294
 21
114.95
 31
0.0
  0
LINE
  5
3E2
  8
DATA
  6
CONTINUOUS
 62
     7
 10
-40.450000000292917
 20
116.0
 30
0.0
 11
-34.55000000029294
 21
116.95
 31
0.0
  0
LINE
  5
3E3
  8
DATA
  6
CONTINUOUS
 62
     7
 10
-40.450000000292917
 20
118.0
 30
0.0
 11
-34.55000000029294
 21
118.95
 31
0.0
  0
LINE
  5
3E4
  8
DATA
  6
CONTINUOUS
 62
     7
 10
-40.450000000292917
 20
120.0
 30
0.0
 11
-34.55000000029294
 21
120.95
 31
0.0
  0
LINE
  5
3E5
  8
DATA
  6
CONTINUOUS
 62
     7
 10
-40.450000000292917
 20
122.0
 30
0.0
 11
-34.55000000029294
 21
122.95
 31
0.0
  0
LINE
  5
3E6
  8
DATA
  6
CONTINUOUS
 62
     7
 10
-40.450000000292917
 20
124.0
 30
0.0
 11
-34.55000000029294
 21
124.95
 31
0.0
  0
LINE
  5
3E7
  8
DATA
  6
CONTINUOUS
 62
     7
 10
-40.450000000292917
 20
126.0
 30
0.0
 11
-34.55000000029294
 21
126.95
 31
0.0
  0
LINE
  5
3E8
  8
DATA
  6
CONTINUOUS
 62
     7
 10
-40.450000000292917
 20
128.0
 30
0.0
 11
-34.55000000029294
 21
128.94999999999999
 31
0.0
  0
LINE
  5
3E9
  8
DATA
  6
CONTINUOUS
 62
     7
 10
-40.450000000292917
 20
130.0
 30
0.0
 11
-34.55000000029294
 21
130.94999999999999
 31
0.0
  0
LINE
  5
3EA
  8
DATA
  6
CONTINUOUS
 62
     7
 10
-40.450000000292917
 20
132.0
 30
0.0
 11
-34.55000000029294
 21
132.94999999999999
 31
0.0
  0
LINE
  5
3EB
  8
DATA
  6
CONTINUOUS
 62
     7
 10
-40.450000000292917
 20
134.0
 30
0.0
 11
-34.55000000029294
 21
134.94999999999999
 31
0.0
  0
LINE
  5
3EC
  8
DATA
  6
STYLE_01
 62
     7
 10
-46.015000000656222
 20
197.56383228023611
 30
0.0
 11
-28.984999999929659
 21
197.56383228023611
 31
0.0
  0
LINE
  5
3ED
  8
DATA
  6
CONTINUOUS
 62
     7
 10
-40.450000000292917
 20
84.0
 30
0.0
 11
-34.55000000029294
 21
84.950000000000017
 31
0.0
  0
LINE
  5
3EE
  8
DATA
  6
CONTINUOUS
 62
     7
 10
-40.450000000292917
 20
82.0
 30
0.0
 11
-34.55000000029294
 21
82.950000000000017
 31
0.0
  0
LINE
  5
3EF
  8
DATA
  6
CONTINUOUS
 62
     7
 10
-40.450000000292917
 20
80.0
 30
0.0
 11
-34.55000000029294
 21
80.950000000000017
 31
0.0
  0
LINE
  5
3F0
  8
DATA
  6
CONTINUOUS
 62
     7
 10
-40.450000000292917
 20
78.0
 30
0.0
 11
-34.55000000029294
 21
78.950000000000017
 31
0.0
  0
LINE
  5
3F1
  8
DATA
  6
CONTINUOUS
 62
     7
 10
-40.450000000292917
 20
76.0
 30
0.0
 11
-34.55000000029294
 21
76.950000000000017
 31
0.0
  0
LINE
  5
3F2
  8
DATA
  6
CONTINUOUS
 62
     7
 10
-40.450000000292917
 20
74.0
 30
0.0
 11
-34.55000000029294
 21
74.950000000000017
 31
0.0
  0
LINE
  5
3F3
  8
DATA
  6
CONTINUOUS
 62
     7
 10
-40.450000000292917
 20
72.0
 30
0.0
 11
-34.55000000029294
 21
72.950000000000017
 31
0.0
  0
LINE
  5
3F4
  8
DATA
  6
CONTINUOUS
 62
     7
 10
-40.450000000292917
 20
70.0
 30
0.0
 11
-34.55000000029294
 21
70.950000000000017
 31
0.0
  0
LINE
  5
3F5
  8
DATA
  6
CONTINUOUS
 62
     7
 10
-40.450000000292917
 20
68.0
 30
0.0
 11
-34.55000000029294
 21
68.950000000000017
 31
0.0
  0
LINE
  5
3F6
  8
DATA
  6
CONTINUOUS
 62
     7
 10
-40.450000000292917
 20
66.0
 30
0.0
 11
-34.55000000029294
 21
66.950000000000017
 31
0.0
  0
LINE
  5
3F7
  8
DATA
  6
CONTINUOUS
 62
     7
 10
-40.450000000292917
 20
64.0
 30
0.0
 11
-34.55000000029294
 21
64.950000000000017
 31
0.0
  0
LINE
  5
3F8
  8
DATA
  6
CONTINUOUS
 62
     7
 10
-34.76218874727774
 20
205.4027399938075
 30
0.0
 11
-34.76218874727774
 21
211.0972600061925
 31
0.0
  0
LINE
  5
3F9
  8
DATA
  6
CONTINUOUS
 62
     7
 10
-33.962188747277771
 20
206.49318710784601
 30
0.0
 11
-33.962188747277771
 21
210.0068128921541
 31
0.0
  0
LINE
  5
3FA
  8
DATA
  6
CONTINUOUS
 62
     7
 10
-40.395892987903267
 20
205.56368211034089
 30
0.0
 11
-34.604107012682583
 21
205.56368211034089
 31
0.0
  0
LINE
  5
3FB
  8
DATA
  6
CONTINUOUS
 62
     7
 10
-40.970490573561172
 20
206.3636821103409
 30
0.0
 11
-34.029509427024742
 21
206.3636821103409
 31
0.0
  0
LINE
  5
3FC
  8
DATA
  6
CONTINUOUS
 62
     7
 10
-41.297685274588389
 20
207.16368211034089
 30
0.0
 11
-33.702314725997446
 21
207.16368211034089
 31
0.0
  0
LINE
  5
3FD
  8
DATA
  6
CONTINUOUS
 62
     7
 10
-41.225149569499941
 20
209.56368211034089
 30
0.0
 11
-33.774850431085909
 21
209.56368211034089
 31
0.0
  0
LINE
  5
3FE
  8
DATA
  6
CONTINUOUS
 62
     7
 10
-40.836891957851392
 20
210.3636821103409
 30
0.0
 11
-34.163108042734521
 21
210.3636821103409
 31
0.0
  0
LINE
  5
3FF
  8
DATA
  6
CONTINUOUS
 62
     7
 10
-40.167012666155891
 20
211.16368211034089
 30
0.0
 11
-34.832987334429973
 21
211.16368211034089
 31
0.0
  0
LINE
  5
400
  8
DATA
  6
CONTINUOUS
 62
     7
 10
-40.362188747277749
 20
205.52779949734889
 30
0.0
 11
-40.362188747277749
 21
210.97220050265111
 31
0.0
  0
LINE
  5
401
  8
DATA
  6
CONTINUOUS
 62
     7
 10
-39.562188747277737
 20
204.88104206440491
 30
0.0
 11
-39.562188747277737
 21
211.61895793559501
 31
0.0
  0
LINE
  5
402
  8
DATA
  6
CONTINUOUS
 62
     7
 10
-38.762188747277719
 20
204.5070894257297
 30
0.0
 11
-38.762188747277719
 21
211.9929105742703
 31
0.0
  0
LINE
  5
403
  8
DATA
  6
CONTINUOUS
 62
     7
 10
-37.962188747277771
 20
204.32713350186879
 30
0.0
 11
-37.962188747277771
 21
212.17286649813121
 31
0.0
  0
LINE
  5
404
  8
DATA
  6
CONTINUOUS
 62
     7
 10
-37.162188747277781
 20
204.31447162920449
 30
0.0
 11
-37.162188747277781
 21
212.18552837079559
 31
0.0
  0
LINE
  5
405
  8
DATA
  6
CONTINUOUS
 62
     7
 10
-36.362188747277763
 20
204.46742342410471
 30
0.0
 11
-36.362188747277763
 21
212.03257657589521
 31
0.0
  0
LINE
  5
406
  8
DATA
  6
CONTINUOUS
 62
     7
 10
-35.562188747277737
 20
204.8079965793614
 30
0.0
 11
-35.562188747277737
 21
211.6920034206386
 31
0.0
  0
LINE
  5
407
  8
DATA
  6
CONTINUOUS
 62
     7
 10
-39.356902682782803
 20
204.76368211034091
 30
0.0
 11
-35.643097317803111
 21
204.76368211034091
 31
0.0
  0
LINE
  5
408
  8
DATA
  6
CONTINUOUS
 62
     7
 10
-41.439609380175
 20
207.9636821103409
 30
0.0
 11
-33.560390620410899
 21
207.9636821103409
 31
0.0
  0
LINE
  5
409
  8
DATA
  6
CONTINUOUS
 62
     7
 10
-41.416456394727689
 20
208.76368211034091
 30
0.0
 11
-33.583543605858232
 21
208.76368211034091
 31
0.0
  0
LINE
  5
40A
  8
DATA
  6
CONTINUOUS
 62
     7
 10
-38.845758219040043
 20
211.9636821103409
 30
0.0
 11
-36.154241781545892
 21
211.9636821103409
 31
0.0
  0
LINE
  5
40B
  8
DATA
  6
CONTINUOUS
 62
     7
 10
-41.162188747277767
 20
206.76984001491121
 30
0.0
 11
-41.162188747277767
 21
209.7301599850887
 31
0.0
  0
LINE
  5
40C
  8
DATA
  6
CONTINUOUS
 62
     7
 10
-40.450000000292917
 20
136.0
 30
0.0
 11
-34.55000000029294
 21
136.94999999999999
 31
0.0
  0
LINE
  5
40D
  8
DATA
  6
CONTINUOUS
 62
     7
 10
-40.450000000292917
 20
138.0
 30
0.0
 11
-34.55000000029294
 21
138.94999999999999
 31
0.0
  0
LINE
  5
40E
  8
DATA
  6
CONTINUOUS
 62
     7
 10
-40.450000000292917
 20
140.0
 30
0.0
 11
-34.55000000029294
 21
140.94999999999999
 31
0.0
  0
LINE
  5
40F
  8
DATA
  6
CONTINUOUS
 62
     7
 10
-40.450000000292917
 20
142.0
 30
0.0
 11
-34.55000000029294
 21
142.94999999999999
 31
0.0
  0
LINE
  5
410
  8
DATA
  6
CONTINUOUS
 62
     7
 10
-40.450000000292917
 20
144.0
 30
0.0
 11
-34.55000000029294
 21
144.94999999999999
 31
0.0
  0
LINE
  5
411
  8
DATA
  6
CONTINUOUS
 62
     7
 10
-40.450000000292917
 20
146.0
 30
0.0
 11
-34.55000000029294
 21
146.94999999999999
 31
0.0
  0
LINE
  5
412
  8
DATA
  6
CONTINUOUS
 62
     7
 10
-40.450000000292917
 20
148.0
 30
0.0
 11
-34.55000000029294
 21
148.94999999999999
 31
0.0
  0
LINE
  5
413
  8
DATA
  6
CONTINUOUS
 62
     7
 10
-40.450000000292917
 20
150.0
 30
0.0
 11
-34.55000000029294
 21
150.94999999999999
 31
0.0
  0
LINE
  5
414
  8
DATA
  6
CONTINUOUS
 62
     7
 10
-40.450000000292917
 20
152.0
 30
0.0
 11
-34.55000000029294
 21
152.94999999999999
 31
0.0
  0
LINE
  5
415
  8
DATA
  6
CONTINUOUS
 62
     7
 10
-40.450000000292917
 20
154.0
 30
0.0
 11
-34.55000000029294
 21
154.94999999999999
 31
0.0
  0
LINE
  5
416
  8
DATA
  6
CONTINUOUS
 62
     7
 10
-40.450000000292917
 20
156.0
 30
0.0
 11
-34.55000000029294
 21
156.94999999999999
 31
0.0
  0
LINE
  5
417
  8
DATA
  6
CONTINUOUS
 62
     7
 10
-40.450000000292917
 20
158.0
 30
0.0
 11
-34.55000000029294
 21
158.94999999999999
 31
0.0
  0
LINE
  5
418
  8
DATA
  6
CONTINUOUS
 62
     7
 10
184.5449999996633
 20
136.0
 30
0.0
 11
190.44499999966331
 21
136.94999999999999
 31
0.0
  0
LINE
  5
419
  8
DATA
  6
CONTINUOUS
 62
     7
 10
184.5449999996633
 20
138.0
 30
0.0
 11
190.44499999966331
 21
138.94999999999999
 31
0.0
  0
LINE
  5
41A
  8
DATA
  6
CONTINUOUS
 62
     7
 10
184.5449999996633
 20
140.0
 30
0.0
 11
190.44499999966331
 21
140.94999999999999
 31
0.0
  0
LINE
  5
41B
  8
DATA
  6
CONTINUOUS
 62
     7
 10
184.5449999996633
 20
142.0
 30
0.0
 11
190.44499999966331
 21
142.94999999999999
 31
0.0
  0
LINE
  5
41C
  8
DATA
  6
CONTINUOUS
 62
     7
 10
184.5449999996633
 20
144.0
 30
0.0
 11
190.44499999966331
 21
144.94999999999999
 31
0.0
  0
LINE
  5
41D
  8
DATA
  6
CONTINUOUS
 62
     7
 10
184.5449999996633
 20
146.0
 30
0.0
 11
190.44499999966331
 21
146.94999999999999
 31
0.0
  0
LINE
  5
41E
  8
DATA
  6
CONTINUOUS
 62
     7
 10
184.5449999996633
 20
148.0
 30
0.0
 11
190.44499999966331
 21
148.94999999999999
 31
0.0
  0
LINE
  5
41F
  8
DATA
  6
CONTINUOUS
 62
     7
 10
184.5449999996633
 20
150.0
 30
0.0
 11
190.44499999966331
 21
150.94999999999999
 31
0.0
  0
LINE
  5
420
  8
DATA
  6
CONTINUOUS
 62
     7
 10
184.5449999996633
 20
152.0
 30
0.0
 11
190.44499999966331
 21
152.94999999999999
 31
0.0
  0
LINE
  5
421
  8
DATA
  6
CONTINUOUS
 62
     7
 10
184.5449999996633
 20
154.0
 30
0.0
 11
190.44499999966331
 21
154.94999999999999
 31
0.0
  0
LINE
  5
422
  8
DATA
  6
CONTINUOUS
 62
     7
 10
184.5449999996633
 20
156.0
 30
0.0
 11
190.44499999966331
 21
156.94999999999999
 31
0.0
  0
LINE
  5
423
  8
DATA
  6
CONTINUOUS
 62
     7
 10
184.5449999996633
 20
158.0
 30
0.0
 11
190.44499999966331
 21
158.94999999999999
 31
0.0
  0
LINE
  5
424
  8
DATA
  6
CONTINUOUS
 62
     7
 10
169.97499999954479
 20
-18.75
 30
0.0
 11
172.8749999995448
 21
-18.75
 31
0.0
  0
LINE
  5
425
  8
DATA
  6
CONTINUOUS
 62
     7
 10
-74.395000000292939
 20
-17.75
 30
0.0
 11
-66.546698158493868
 21
-17.75
 31
0.0
  0
LINE
  5
426
  8
DATA
  6
CONTINUOUS
 62
     7
 10
-59.243301844002659
 20
-17.75
 30
0.0
 11
-51.395000000292931
 21
-17.75
 31
0.0
  0
ARC
  5
427
  8
DATA
  6
CONTINUOUS
 62
     7
 10
-62.89500000029296
 20
-11.55723699681297
 30
0.0
 40
7.1927630031870491
 50
243.49494934729
 51
296.50505093383481
  0
LINE
  5
428
  8
DATA
  6
CONTINUOUS
 62
     7
 10
-69.426490268489133
 20
-12.72334726862317
 30
0.0
 11
-69.895000000292939
 21
15.750000000000011
 31
0.0
  0
LINE
  5
429
  8
DATA
  6
CONTINUOUS
 62
     7
 10
-56.363509731887852
 20
-12.72334725592844
 30
0.0
 11
-55.895000000292939
 21
15.750000000000011
 31
0.0
  0
LINE
  5
42A
  8
DATA
  6
CONTINUOUS
 62
     7
 10
-74.395000000292939
 20
15.75
 30
0.0
 11
-51.395000000292931
 21
15.75
 31
0.0
  0
ARC
  5
42B
  8
DATA
  6
CONTINUOUS
 62
     7
 10
-63.427302340200818
 20
-12.62463467607807
 30
0.0
 40
5.9999999979039282
 50
180.94267835256491
 51
243.4949493650528
  0
ARC
  5
42C
  8
DATA
  6
CONTINUOUS
 62
     7
 10
-62.362697681074948
 20
-12.624634663039441
 30
0.0
 40
6.0000000188055687
 50
296.5050510931996
 51
359.05732164743478
  0
LINE
  5
42D
  8
DATA
  6
CONTINUOUS
 62
     7
 10
-67.895000000292939
 20
10.849999999999991
 30
0.0
 11
-57.895000000292939
 21
10.849999999999991
 31
0.0
  0
LINE
  5
42E
  8
DATA
  6
CONTINUOUS
 62
     7
 10
-66.895000000292939
 20
-5.5
 30
0.0
 11
-58.895000000292931
 21
-5.5
 31
0.0
  0
LINE
  5
42F
  8
DATA
  6
CONTINUOUS
 62
     7
 10
-67.895000000292939
 20
10.849999999999991
 30
0.0
 11
-67.895000000292939
 21
-4.5
 31
0.0
  0
LINE
  5
430
  8
DATA
  6
CONTINUOUS
 62
     7
 10
-57.895000000292939
 20
10.849999999999991
 30
0.0
 11
-57.895000000292939
 21
-4.5
 31
0.0
  0
ARC
  5
431
  8
DATA
  6
CONTINUOUS
 62
     7
 10
-66.895000000292939
 20
-4.5
 30
0.0
 40
1.0
 50
180.0
 51
270.0
  0
ARC
  5
432
  8
DATA
  6
CONTINUOUS
 62
     7
 10
-58.895000000292931
 20
-4.5
 30
0.0
 40
1.0
 50
270.0
 51
0.0
  0
LINE
  5
433
  8
DATA
  6
CONTINUOUS
 62
     7
 10
-66.595000000292885
 20
-3.1500000000000048
 30
0.0
 11
-66.595000000292885
 21
10.849999999999991
 31
0.0
  0
LINE
  5
434
  8
DATA
  6
CONTINUOUS
 62
     7
 10
-60.195000000292893
 20
-4.1500000000000048
 30
0.0
 11
-65.595000000292899
 21
-4.1500000000000048
 31
0.0
  0
LINE
  5
435
  8
DATA
  6
CONTINUOUS
 62
     7
 10
-59.195000000292893
 20
10.849999999999991
 30
0.0
 11
-59.195000000292893
 21
-3.1500000000000048
 31
0.0
  0
LINE
  5
436
  8
DATA
  6
CONTINUOUS
 62
     7
 10
-66.595000000292885
 20
10.849999999999991
 30
0.0
 11
-59.195000000292893
 21
10.849999999999991
 31
0.0
  0
LINE
  5
437
  8
DATA
  6
CONTINUOUS
 62
     7
 10
-66.595000000292885
 20
0.8499999999999943
 30
0.0
 11
-59.195000000292893
 21
0.8499999999999943
 31
0.0
  0
LINE
  5
438
  8
DATA
  6
CONTINUOUS
 62
     7
 10
-66.595000000292885
 20
-1.150000000000005
 30
0.0
 11
-59.195000000292893
 21
-1.150000000000005
 31
0.0
  0
LINE
  5
439
  8
DATA
  6
CONTINUOUS
 62
     7
 10
-66.595000000292885
 20
-1.734155166466308
 30
0.0
 11
-59.195000000292893
 21
-1.734155166466308
 31
0.0
  0
ARC
  5
43A
  8
DATA
  6
CONTINUOUS
 62
     7
 10
-65.595000000292899
 20
-3.1500000000000048
 30
0.0
 40
1.0
 50
180.0
 51
270.0
  0
ARC
  5
43B
  8
DATA
  6
CONTINUOUS
 62
     7
 10
-60.195000000292893
 20
-3.1500000000000048
 30
0.0
 40
1.0
 50
270.0
 51
0.0
  0
LINE
  5
43C
  8
DATA
  6
CONTINUOUS
 62
     7
 10
169.97499999954479
 20
-18.75
 30
0.0
 11
169.97499999954479
 21
21.25
 31
0.0
  0
LINE
  5
43D
  8
DATA
  6
CONTINUOUS
 62
     7
 10
172.8749999995448
 20
-18.75
 30
0.0
 11
172.8749999995448
 21
17.25
 31
0.0
  0
LINE
  5
43E
  8
DATA
  6
CONTINUOUS
 62
     7
 10
176.2749999995448
 20
-17.75
 30
0.0
 11
176.2749999995448
 21
18.25
 31
0.0
  0
LINE
  5
43F
  8
DATA
  6
CONTINUOUS
 62
     7
 10
179.7478095485753
 20
-17.75
 30
0.0
 11
179.7478095485753
 21
16.579999999999998
 31
0.0
  0
LINE
  5
440
  8
DATA
  6
CONTINUOUS
 62
     7
 10
173.8749999995448
 20
18.25
 30
0.0
 11
176.2749999995448
 21
18.249999999999979
 31
0.0
  0
LINE
  5
441
  8
DATA
  6
CONTINUOUS
 62
     7
 10
169.97499999954479
 20
21.25
 30
0.0
 11
182.4378240836665
 21
21.25
 31
0.0
  0
LINE
  5
442
  8
DATA
  6
CONTINUOUS
 62
     7
 10
176.2749999995448
 20
-17.75
 30
0.0
 11
179.7478095485753
 21
-17.75
 31
0.0
  0
ARC
  5
443
  8
DATA
  6
CONTINUOUS
 62
     7
 10
185.65994047344881
 20
15.03523435687779
 30
0.0
 40
6.1106131414953913
 50
148.58816444522199
 51
165.3567105704787
  0
ARC
  5
444
  8
DATA
  6
CONTINUOUS
 62
     7
 10
173.8749999995448
 20
17.25
 30
0.0
 40
1.0
 50
90.0
 51
180.0
  0
LINE
  5
445
  8
DATA
  6
CONTINUOUS
 62
     7
 10
176.2749999995448
 20
-15.65
 30
0.0
 11
172.8749999995448
 21
-15.65
 31
0.0
  0
LINE
  5
446
  8
DATA
  6
CONTINUOUS
 62
     7
 10
176.2749999995448
 20
-2.6500000000000048
 30
0.0
 11
172.8749999995448
 21
-2.6500000000000048
 31
0.0
  0
LINE
  5
447
  8
DATA
  6
CONTINUOUS
 62
     7
 10
169.97499999954479
 20
-1.734155166466308
 30
0.0
 11
168.47499999954479
 21
-1.4420775832331569
 31
0.0
  0
LINE
  5
448
  8
DATA
  6
CONTINUOUS
 62
     7
 10
169.97499999954479
 20
-1.150000000000005
 30
0.0
 11
168.47499999954479
 21
-1.4420775832331569
 31
0.0
  0
LINE
  5
449
  8
DATA
  6
CONTINUOUS
 62
     7
 10
-55.895000000292939
 20
262.49999999971908
 30
0.0
 11
-69.895000000292939
 21
262.49999999971908
 31
0.0
  0
LINE
  5
44A
  8
DATA
  6
CONTINUOUS
 62
     7
 10
-69.895000000292939
 20
262.49999999971908
 30
0.0
 11
-69.895000000292939
 21
268.49999999971908
 31
0.0
  0
LINE
  5
44B
  8
DATA
  6
CONTINUOUS
 62
     7
 10
-55.895000000292939
 20
262.49999999971908
 30
0.0
 11
-55.895000000292939
 21
268.49999999971908
 31
0.0
  0
LINE
  5
44C
  8
DATA
  6
CONTINUOUS
 62
     7
 10
-72.495000000292904
 20
268.49999999971908
 30
0.0
 11
-69.895000000292939
 21
268.49999999971908
 31
0.0
  0
LINE
  5
44D
  8
DATA
  6
CONTINUOUS
 62
     7
 10
-55.895000000292939
 20
268.49999999971908
 30
0.0
 11
-53.495000000292933
 21
268.49999999971908
 31
0.0
  0
LINE
  5
44E
  8
DATA
  6
CONTINUOUS
 62
     7
 10
-65.895000000292939
 20
272.5249999998191
 30
0.0
 11
-65.895000000292939
 21
274.5249999998191
 31
0.0
  0
LINE
  5
44F
  8
DATA
  6
CONTINUOUS
 62
     7
 10
-59.895000000292939
 20
272.5249999998191
 30
0.0
 11
-65.895000000292939
 21
272.5249999998191
 31
0.0
  0
LINE
  5
450
  8
DATA
  6
CONTINUOUS
 62
     7
 10
-59.895000000292939
 20
274.5249999998191
 30
0.0
 11
-59.895000000292939
 21
272.5249999998191
 31
0.0
  0
LINE
  5
451
  8
DATA
  6
CONTINUOUS
 62
     7
 10
-66.595000000292885
 20
261.99999999971908
 30
0.0
 11
-66.595000000292885
 21
262.49999999971908
 31
0.0
  0
LINE
  5
452
  8
DATA
  6
CONTINUOUS
 62
     7
 10
-59.195000000292893
 20
261.99999999971908
 30
0.0
 11
-59.195000000292893
 21
262.49999999971908
 31
0.0
  0
LINE
  5
453
  8
DATA
  6
CONTINUOUS
 62
     7
 10
-66.595000000292885
 20
261.99999999971908
 30
0.0
 11
-59.195000000292893
 21
261.99999999971908
 31
0.0
  0
ENDSEC
  0
EOF
